Avenged Sevenfold - Bat Country Chords & Tabs

 

Avenged Sevenfold Chords & Tabs

Version: 1 Type: Bass Tab 0 ratings
1 star 2 stars 3 stars 4 stars 5 stars
comments

Bat Country Bass Tab

Intro
G|-----------------------|
D|-----------------------|
A|-5555------------------|
D|------666-0-00-5356530-| x2

Pre-Verse (00:15)
G|----------------|
D|----------------|
A|-5~-------------|
D|-----6~--5~--3~-| x2

Verse (00:23)
G|------------------------|
D|------------------------|
A|-55555------------------|
D|-------66666-0000000000-| x2

Pre-Chorus (00:30)
G|--------------------------|
D|--------------------------|
A|-55555--------------44444-|
D|--------66666-55555-------|

G|-------------------------|
D|-------------------------|
A|-55555-77777-------------|
D|-------------33333-22222-|

Chorus (00:38)
G|-------------------------------------|
D|-------------------------------------|
A|-5-5-5555-------------3-3333----3333-|
D|----------555-3-0-3-0--------33------| x2

**Play Verse** x4 (00:53)
**Play Pre-Chorus** (01:09)
**Play Chorus** x2 (01:16)

Clean Part(01:32)
G|--------------------------------------|
D|---3/5~----02~-0-----------5/75353232-|
A|-5~----53~------0~-0------------------|
D|--------------------5~-53~------------| x2

**Play Pre-Verse** x4 (02:02)

Guitar Solo (02:18)
G|--------------|
D|--------------|
A|-5~-----------|
D|----6~--5~--0-| x2

(02:26)
G|-----------------------------|
D|-----------------------------|
A|-55555-----------------------|
D|-------66666-00000000-333/6~-| x4

(02:41)
G|--------------------------|
D|--------------------------|
A|-55555--------------44444-|
D|--------66666-55555-------|
[ Tab from: http://www.guitartabs.cc/tabs/a/avenged_sevenfold/bat_country_btab.html ]
G|---------------------------|
D|---------------------------|
A|-55555-77777---------------|
D|-------------33333-22222-0-|

(02:53)
G|----------------------------------------|
D|----------------------------------------|
A|----------------3-3333~-0-0000~-4-4444~-|
D|-0-0000~-5-5555~------------------------| x2

(03:08)
G|---------|---------|-----------------|
D|---------|---------|-----------------|
A|-----0---|----1-0--|-0-------5-3-8-7-|
D|-3-0--53-|-22----5-|---5-3-2---------|

**Play Verse** x4 (03:16)

(03:30)
G|-----------------------------------|
D|-----------------------------------|
A|--------------33333333-------------|
D|-0-2-33333333----------55555555-0~-|

(03:37)
G|-----------------------------------------------------------|
D|-----------------------------------------------------------|
A|--------------------33333333-11111111111111-000000-4444444-|
D|-0000000-2-33333333----------------------------------------|

**Play Chorus** x2 (03:50)

Clean Part (04:06)
G|--------------------------------------|
D|---3/5~----02~-0-----------5/75353232-|
A|-5~----53~------0~-0------------------|
D|--------------------5~-53~------------| x2

outro
G|---------------------------------------------------|
D|-----------------------222222----------------------|
A|-555555---------333333--------000000---------------|
D|---------555555----------------------555555-333333-|

G|-----------------------------------------------|
D|-----------------------222222------------------|
A|-555555---------333333--------000000-----------|
D|---------555555----------------------555555-3~-|

HAVE FUN!
Comments