Avenged Sevenfold - An Epic Of Time Wasted Chords & Tabs

 

An Epic Of Time Wasted Chords & Tabs

Avenged Sevenfold Chords & Tabs

Version: 2 Type: Bass Tab

An Epic Of Time Wasted Bass Tab

---------------------------------------------------------------------------
	                 Avenged Sevenfold - An Epic of Time Wasted 
---------------------------------------------------------------------------

Tabbed By : SephirothRaiku
e-mail: Project_Xeno@hotmail.com

Tuning: Drop - D


(0:00)Intro x4
|----------------------------|
|----------------------------|
|---7------------------------|
|-0---6-5-0-3-5-6-3-0-3-00---|

Pre-Verse
|----|
|----|
|----|
|-0r-|

(0:18) Verse x4                                  
|------------------------------------------------|
|------------------------------------------------|
|----3/5-------------------3/5-------------------|
|-00----0-2-3-0-2-3-5-1-00-----0-2-3-0-2-3-5-7---|

Pre-Verse
|----|
|----|
|----|
|-0r-|

(0:38) Verse x4
|-------------------------------------------------|
|-------------------------------------------------|
|----3/5--------------------3/5-------------------|
|-000----0-2-3-0-2-3-5-1-00-----0-2-3-0-2-3-5-7---|

(0:55) Post - Verse
|---------------------|
|---------------------|
|---------------------|
|-00-0-00-0-00-1-0-|

(1:00) Chorus
|----------------------------------------------------|
|----------------------------------------------------|
|----------------------------------------------------|(11 not 1-1)
|-55555555-77777777-9999-12121212-11111111-12-11-7-5-|(12 not 1-2)

|----------------------------------------------------|
|----------------------------------------------------|
|----------------------------------------------------|
|55555555-77777777-44444444--------------------------|

|--------------------------------------------------------|
|--------------------------------------------------------|
|--------------------------------------------------------|
|55555555-77777777-12121212-11111111-9999-7777-5555555-4-|(12 not 1-2)

(1:17) Bridge
|----------------------------------------------|
|----------------------------------------------|
|----------------------------------------------|
|-99999-9999-9-7-55555-5555-5-4-22222-2222-2-4-|

|-----------------|
|-----------------|
|-----------------|
|-7777777777--???-|

(1:26) Verse 2
|----------------------------------------------------|
|----------------------------------------------------|
|-----------99-55-77-44------------99-77-99-1212-----|(12 not 1-2)
|-99999999---------------55555555--------------------|

|----------------------------------------------------|
|----------------------------------------------------|
|-----------77-55-44-55------------------------------|
|-00000000---------------7777777777777777------------|

|----------------------------------------------------|
|----------------------------------------------------|
|-----------99-55-77-44------------99-77-99-1212-----|(12 not 1-2)
|-99999999---------------55555555--------------------|

|----------------------------------------------------|
|----------------------------------------------------|
|-----------77-55-44-55------------------------------|
|-00000000---------------77777777-7-7-7-7-7-7--------|

(1:46) Bridge 2
|-------------------------------|
|-------------------------------|
|-------------------------1-----|
|-0---1---8---3---0---1-------3-|

(2:06) 
|--------------------------------------|
|--------------------------------------|
|--------------------------------------|
|--0-0-0-0-0-0-0-0-0-0-0-0-0-0-0-0-----|
[ Tab from: http://www.guitartabs.cc/tabs/a/avenged_sevenfold/an_epic_of_time_wasted_btab_ver_2.html ]
(2:10) 
|--------------------------------------|
|--------------------------------------|
|--------------------------------------|
|--00-00---00-00---00-00---00-00-------|

(2:20) 
|--------------------------------------------------|
|--------------------------------------------------|
|--------------------------------------------------|
|-00xx00xxxxxx00xx00xxxxxx00xx00xxxxxx00xx00xxxxxx-|

(2:32) 
|-------------------------------------------------------------------|
|-------------------------------------------------------------------|
|-------------------------------------------------------------------|
|--1p0-1p0-1p0-1p0-1p0-1p0-1p0-1p0-1p0-1p0-1p0-1p0-1p0-1p0-1p0-1p0--|

(2:42) 
|---------------------------------------|
|---------------------------------------|
|------------------------------------8r-|
|--5-8-7-5-8-7-5-1r----5-8-7-5-8-7-5----|

(2:49) Bridge 3
|------------------------------------------------|
|------------------------------------------------|
|-00000000-00000000-00000000-00000000-00000000-0-|
|------------------------------------------------|

(2:58) 
|---------------------------------------------------------------------------|
|---------------------------------------------------------------------------|
|---------------------------------------------------------------------------|
|--111-0--111-0--111-0--111-0--111-0--111-0--111-0--111-0--111-0--111-0-----|

(3:09) Guitar Interlude
|--R---------------T-|-R---------------T-|-R---------------T--|
|----E-----------S-------E-----------S-------E-----------S----|
|------S-------E-----------S-------E-----------S-------E------|
|--------T-|-R---------------T-|-R---------------T-|-R--------|

(3:31)  
|--------------------------------------------------------|
|--------------------------------------------------------|
|------1-111-111-111-------------------------------------|
|-12/0--------------3-0-000-000-0000---------------------|

|---------------------------------------------------|
|---------------------------------------------------|
|-1-111-111-1113------------------------------------|
|----------------0-000-000-0000---------------------|

|---------------------------------------------------|
|---------------------------------------------------|
|-1-111-111-111-------------------------------------|
|--------------3-0-000-000-0000---------------------|

|---------------------------------------------------|
|---------------------------------------------------|
|-1-111-111-1113------------------------------------|
|----------------0-000-000-0000---------------------|

|---------------------------------------------------|
|---------------------------------------------------|
|-----------------------------------8-10-8----------|
|-8888888888883-00000000--12-10-12----------12-10---|

|---------------------------------------------------|
|---------------------------------------------------|
|-----------------------------------8-10-8----------|(10 not 1-0)
|-88888888888810-00000000--12-10-12---------12-10---|(12 not 1-2)

|---------------------------------------------------|
|---------------------------------------------------|
|-----------------------------------8-10-8----------|
|-8888888888883-00000000--12-10-12----------12-10---|

|---------------------------------------------------|
|---------------------------------------------------|
|---------------------------------------------------|
|-88888888888810-00000000--12r----------------------|