Avenged Sevenfold - Almost Easy Chords & Tabs

 

Almost Easy Chords & Tabs

Avenged Sevenfold Chords & Tabs

Version: 1 Type: Tab 0 ratings
1 star 2 stars 3 stars 4 stars 5 stars
comments

Almost Easy Tab

Song: Almost Easy
Artist: Avenged Sevenfold
Album: Avenged Sevenfold
Tuning: Drop D


Ok, people. so it's in Drop D half step down. I have done that. Everything has been
down a notch. Thanks everyone for helping me on realizing this. I've added the piano part,
changed the rhythm guitar part during the solo, and added the lead guitar on the
Enjoy (more than u already have).

Intro
Piano Part (Repeat a lot during Intro)
|-----------------------------------------------|
|-------------18--------------------------------|
|-14h15p14-14----17-14--------------------------|
|-----------------------------------------------|
|-----------------------------------------------|
|-----------------------------------------------|


Rhythm Guitar 2x
|-----------------------------------------------|
|-----------------------------------------------|
|-7-7-777777-55555555-----------3333-5555-------|
|-7-7-777777-55555555-555555555-3333-5555-------|
|-5-5-555555-33333333-555555555-1111-3333-------|
|---------------------555555555-----------------|

Lead Guitar
|-------------------------------------------------------16b17~---|
|-------------/18-17-------15b16d-(15)b16---18-17----------------|
|--------------------17-14------------------------17-14----------|
|----------------------------------------------------------------|
|----------------------------------------------------------------|
|----------------------------------------------------------------|

|----------------------------18-17-18\------------------------|
|-18-17--------15b17---18-17----------------------------------|
|-------17-14-------------------------------------------------|
|-------------------------------------------------------------|
|-------------------------------------------------------------|
|-------------------------------------------------------------|

Pre-Verse
|-----------------------------------------------------------------|
|-----------------------------------------------------------------|
|-----------------------------------------------------------------|
|-7\----------------7\6----6\3----6-7-----------------------------|
|-5\-00000000000000-5\4-00-4\1-00-4-5--00000--00-----00-----------|
|----00000000000000-----00-----00------00000--00-7bv-00-7b8d7v----|
     PM|-----------     --     --      -----  --     --

Verse 1st, 2nd, and 4th time
|---------------------------------------------------|
|---------------------------------------------------|
|---------------------------------------------------|
|-0--------0--------0--------0----------------------|
|-0-000000-0-000000-0-000000-0-00-------------------|
|-0-000000-0-000000-0-000000-0-00-5h6p5-------------|
    PM|---   ------   ------   ---------------------|

3rd time
|--------------------------------------------------------|
|--------------------------------------------------------|
|--------------------------------------------------------|
|-0-------------0-------------0-------------0------------|
|-0-00-00-00-00-0-00-00-00-00-0-00-00-00-00-0-00---------|
|-0-00-00-00-00-0-00-00-00-00-0-00-00-00-00-0-00-5h6p5---|
    PM|-- -- --   -- -- -- --   -- -- -- --   --

Then

Pre-Chorus 2x
|------------------------------------------------|
|------------------------------------------------|
|-7-7---5-5---3-3-xx-3--5-5---6-6----------------|
|-7-7---5-5---3-3-xx-3--5-5---6-6----------------|
|-5-5---3-3---1-1-xx-1--3-3---4-4----------------|
|------------------------------------------------|

Chorus
|------------------------------------------|
|------------------------------------------|
|--10-10-10-10-----------------------------|
|--10-10-10-10--0-0-0-0--------------------|
|--8--8--8--8---0-0-0-0--------------------|
|---------------0-0-0-0---000000-5h6p5-----|
                          PM|---

Repeat Verse

Repeat Pre-Chorus 2x

Repeat Chorus 2x

Repeat Pre-Verse

[ Tab from: http://www.guitartabs.cc/tabs/a/avenged_sevenfold/almost_easy_tab.html ]
Solo
Guitar I
|---------------------------------------16-17b--/22b-21------------------------16-15--------------------|
|---------------------------------16-19------------------22-21-----------------------16-15-20b21-20b21--|
|-18b19-18p17p16------------11-14-------------------------------19-16----16v----------------------------|
|----------------18bv--12-13------------------------------------------19--------------------------------|
|-------------------------------------------------------------------------------------------------------|
|-------------------------------------------------------------------------------------------------------|

|--------------------------------18-17-------------------------------18v---|
|--20-19-------------------------------19-18-------------------18-19-------|
|--------20-19-------20b21-20b21-------------19-16-------19-20-------------|
|--------------21-20-------------------------------17v\--------------------|
|--------------------------------------------------------------------------|
|--------------------------------------------------------------------------|

|------------------------------/17v---------------------------------------|
|-----------------------------------------11b12d11---------11h12p11-------|
|-------------------------------------------------------------------------|
|-12v----------/19v---------12---------------------13v--------------13v---|
|-----12s13s12--------12s13------------13---------------13----------------|
|-------------------------------------------------------------------------|

|-----------------------------18b19d18-------------/18-17-15----17-15-------20-18-17-------------------------------|
|--------------------------------------17--------------------18-------18-17----------19p18p16----------------------|
|-------------16b17v--------------------------------------------------------------------------18p17p15-------------|
|--------------------------13--------------------------------------------------------------------------19p18-------|
|---13s17s13b--------13s17-----------------------------------------------------------------------------------17v\--|
|------------------------------------------------------------------------------------------------------------------|

Guitar II (something like this)
|-------------------------------------------------------------------------------------|
|-------------------------------------------------------------------------------------|
|-------------------------------------------------------------------------------------|
|------0-0------0-0--0-6-7--0-6-7---------------------------0-6-7--0-6-7--------------|
|-0000-0-0-0000-0-0--0-6-7--0-6-7--00-00-00-00-00-00-00-00--0-6-7--0-6-7--------------|
|-0000-0-0-0000-0-0--0-6-7--0-6-7--00-00-00-00-00-00-00-00--0-6-7--0-6-7--------------|
  PM|-     ----                    PM|-- -- -- -- -- -- --

2x
|-----------------------------------------------|
|-----------------------------------------------|
|-7-7-777777-55555555-----------3333-5555-------|
|-7-7-777777-55555555-555555555-3333-5555-------|
|-5-5-555555-33333333-555555555-1111-3333-------|
|---------------------555555555-----------------|

Post-Solo
Both Guitars
|----------------------------------------------------------|
|----------------------------------------------------------|
|-------------------------------------------5-5555-6-6666--|
|-0-0000-0-0000-4-4444-4-4444-5-5555-5-5555-5-5555-6-6666--|
|-0-0000-0-0000-4-4444-4-4444-5-5555-5-5555-3-3333-4-4444--|
|-0-0000-0-0000-4-4444-4-4444-5-5555-5-5555----------------|

|----------------------------------------------------------------------------------|
|----------------------------------------------------------------------------------|
|-7-7777-7-7777-10-10101010-10-10101010-5-5555-5-5555------------------------------|
|-7-7777-7-7777-10-10101010-10-10101010-5-5555-5-5555-7-7777-7-7777-7-7777-7-7777--|
|-5-5555-5-5555-8--8-8-8-8--8--8-8-8-8--3-3333-3-3333-7-7777-7-7777-7-7777-7-7777--|
|-----------------------------------------------------7-7777-7-7777-7-7777-7-7777--|

|-----------------------------------|
|-----------------------------------|
|-3-3333-4-4444-5-5555-6-6666-------|
|-3-3333-4-4444-5-5555-6-6666-------|
|-1-1111-2-2222-3-3333-4-4444-------|
|-----------------------------------|

Then,

Rhythm Guitar Only 2x
|-----------------------------------------------------|
|-----------------------------------------------------|
|-7-7---7-5-5---5-3-3---3-5-5---5-6-6-----------------|
|-7-7---7-5-5---5-3-3---3-5-5---5-6-6-----------------|
|-5-5---5-3-3---3-1-1---1-3-3---3-4-4-----------------|
|-----------------------------------------------------|

Lead Guitar
|------------------------------------------------------|
|------------------------------------------------------|
|-----------------------------------------5--5-6-------|
|-----------------------------------------x--x-x-------|
|-------0000-0-0-------------0000-0-0-0---3--3-4-------|
|-------0000-0-0-------------0000-0-0-0----------------|
        PM|- - -             ---- - - -


Repeat Chorus 2x

Repeat Pre-Verse

And Yer Done.


*Please Rate*
Comments