Avenged Sevenfold - Almost Easy Chords & Tabs

 

Avenged Sevenfold Chords & Tabs

Version: 6 Type: Bass Tab 0 ratings
1 star 2 stars 3 stars 4 stars 5 stars
comments

Almost Easy Bass Tab

   
-------------------------------------------------------------------------------
			     Avenged Sevenfold - Almost Easy
-------------------------------------------------------------------------------

I'm 100% this is correct. I made this from the Bass Track 
http://www.youtube.com/watch?v=Gr8BdioAFuM

Tabbed By : TumiChong
e-mail: darklucki@gmail.com

Tuning:Drop D + half step dowm C#-G#-C#-F#


Intro
F|----------------------------------------------------------------------------------|
C|----------------------------------------------------------------------------------|
G|-5-5-5-5-5-5-5-5-5-5-5-5-5-3-3-3-3-3-3-3-3-3-3-3-3--------------------------------|
C|---------------------------------------------------5-5-5-5-5-5-5-5-5-5-5-5--------|

F|--------------------------|
C|--------------------------|
G|-1-1-1-1-1-1-3-3-3-3-3-3--|
C|--------------------------|

Oh!
F|----------------------------------------------------------------------------------|
C|----------------------------------------------------------------------------------|
G|--5---------6-4---4-1----5--------------------------------------------------------|
C|---0-0-0-0-0---0-0---0-0--0-0-0-0-0000-787-0000-8108------------------------------|

F|----------------------------------------------------------------------------------|
C|----------------------------------------------------------------------------------|
G|--5---------6-4---4-1----5--------------------------------------------------------|
C|---0-0-0-0-0---0-0---0-0--0-0-0-0-0000-0000-5-6-5---------------------------------|

Verse
F|----------------------------------------------------------------------------------|
C|----------------------------------------------------------------------------------|
G|----------------------------------------------------------------------------------|
C|-0--000000-0--000000--0--000000--0000-0000-5-6-5----------------------------------|

F|----------------------------------------------------------------------------------|
C|----------------------------------------------------------------------------------|
G|----------------------------------------------------------------------------------|
C|-0--000000-0--000000--0--000000--0000-0000-5-6-5----------------------------------|

F|----------------------------------------------------------------------------------|
C|----------------------------------------------------------------------------------|
G|----------------------------------------------------------------------------------|
C|-0-000-000-000--0-000-000-000--0-000-000-000--0000-0000-5-6-5---------------------|

F|----------------------------------------------------------------------------------|
C|----------------------------------------------------------------------------------|
G|----------------------------------------------------------------------------------|
C|-0--000000-0--000000--0--000000--0000-0000-5-6-5----------------------------------|
[ Tab from: http://www.guitartabs.cc/tabs/a/avenged_sevenfold/almost_easy_btab_ver_6.html ]
Pre-chorus
F|--------------------------------------------------------------------------------|
C|--------------------------------------------------------------------------------|
G|-----5---3333-0-1111-1-11-0-333333-4444-----------------------------------------|
C|-0--0---0-----------------------------------------------------------------------|x2

Chorus
F|----------------------------------------------------------------------------------|
C|----------------------------------------------------------------------------------|
G|----------------------------------------------------------------------------------|
C|3-33-33-3-33-33-3-33-3-33-33-3-33-33-3-33-0-00-00-0-00-00-0-00-0-00-00------------|

F|-------------------|
C|-------------------|
G|-------------------|
C|-0000-0000-565-----|


*Verse
*Pre-chorus



Chorus2
F|----------------------------------------------------------------------------------|
C|----------------------------------------------------------------------------------|
G|----------------------------------------------------------------------------------|
C|3-33-33-3-33-33-3-33--00-00-0-00-00-0-00-3555-3-33-33-3-33-33-3-33----------------|
                    
F|----------------------------------------------------------------------------------|
C|----------------------------------------------------------------------------------|
G|-88-88-8-88-88-8108---------------------------------------------------------------|
C|-------------------10-0-00-00-0-00-00-0-00-0-00-00-0000-0000-565------------------|
                                               
*Oh!

Solo
F|------------------------------------------|
C|------------------------------------------|
G|------------------------------------------|
C|0-00000-00000-00000-00000-3-56-66-3-56-66-|x2

*Intro

Bridge
F|----------------------------------------------------------------------------------|
C|----------------------------------------------------------------------------------|
G|--------------------------------3-33-33-3-33-33-0-00-00-0-00-00-1-11-11-1-11-1013-|
C|0-00-00-0-00-00-3-33-33-3-33-33---------------------------------------------------|

F|----------------------------------------------------------------------------------|
C|33-33-33--------------------------------------------------------------------------|
G|--------3-33-33-3-33-33-0-00-00-0-00--00-0-/12-12-12-1-11-11-1-11-11--11-1-1-11-13| <-- 1 and 3
C|----------------------------------------------------------------------------------|

Pre-Chorus2
F|----------------------------------|
C|----------------------------------|
G|-----------------------3333-4444--|
C|0--0000-0-0----0000-0-0-----------|

Chorus3
F|----------------------------------------------------------------------------------|
C|---------------------------------------------------------------5-3----------------|
G|------------------------------------------------------------------5-3-------------|
C|3-33-33-3-33-33-3-33-3-33-33-3-33-33-3-33-0-00-00-0-00-00-0-00-------3-5-5--------|

F|-----------------------------------------------------------------------------------|
C|-----------------------------------------------------------------------------------|
G|---------------------8-88-88-8-88-88-8-10-8----------------------------------------|
C|3-33-33-3-33-33-3-33-----------------------10-0-00-00-0-00-00-0-00-0-00-00---------|

F|-------------------|
C|-------------------|
G|-------------------|
C|-0000-0000-565-----|

*Oh!


Any Comments are welcome
Comments