Avenged Sevenfold - Almost Easy Chords & Tabs

 

Avenged Sevenfold Chords & Tabs

Version: 5 Type: Bass Tab 0 ratings
1 star 2 stars 3 stars 4 stars 5 stars
comments

Almost Easy Bass Tab

This was improvised but I find it is Fully spot on and a great improv seeing as me and 
my mate improv'ed this on skype for close to 30 till we got it..
[ Tab from: http://www.guitartabs.cc/tabs/a/avenged_sevenfold/almost_easy_btab_ver_5.html ]
G|---------------------|---------------------|---------------------|
D|-9/15-14-------11(b)-|-9/15-14-------18(b)-|-9/15-14-------11(b)-|
A|---------14-11-------|---------14-11-------|---------14-11-------|
E|---------------------|---------------------|---------------------|

G|---------15-14-14\6--|
D|---15-14-------------|
A|---------------------|
E|---------------------|

G|---------------------|
D|---------------------|
A|-4---4-0--4-1---3-4--|
E|---------------------|


(b) is bend.. More improv for tabbing..?

Credits to Nick Maskelyne & Adam McKenzie :) (Mostly Nick) :p
adamiscoool@hotmail.com
Comments