Avenged Sevenfold - Afterlife Chords & Tabs

 

Avenged Sevenfold Chords & Tabs

Version: 7 Type: Bass Tab 0 ratings
1 star 2 stars 3 stars 4 stars 5 stars
comments

Afterlife Bass Tab

Tab transcribed by JMBates from video: http://www.youtube.com/watch?v=dJIn8LAkEYg

Drop D tuning

/ = Slide

After violin intro:

G |-------------------------------------------------------|
D |-------------------------------------------------------|
A |-------------1111111111------------1111111111----------|
D |--0000000000------------5555555555---------------------| x2

Pre-verse:

G |-------------------------------------------------------|
D |-------------------------------------------------------|
A |-------------------------------------------------------|
D |----3-05-06--------------------------------------------| 

Verse:

G |-------------------------------------------------------|
D |-------------------------------------------------------|
A |-5h8-5-5h8-5-------5h8-5--5h8-5------------------------|
D |-------------0-0-0--------------0-0-0-3-5-6------------| x3

G |-------------------------------------------------------|
D |-------------------------------------------------------|
A |-5h8-5-5h8-5-------5h8-5--5h8-5------------------------|
D |-------------0-0-0--------------0-0-0-3-5-6-6-5-3------|

Pre-chorus:

G |-------------------------------------------------------|
D |-------------------------------------------------------|
A |----------------------333333333333---------------------|
D |-008-07-0010-7-0-987-----------------------------------| 

G |-------------------------------------------------------|
D |-------------------------------------------------------|
A |----------------------33333/1515151515-----------------| (fret 15 not 1-5)
D |-008-07-0010-7-0-987-----------------------------------| 

G |-------------------------------------------------------|
D |-------------------------------------------------------|
A |----------------------333333333333-111111111111-3344444|
D |-008-07-0010-7-0-987-----------------------------------|

G |-------------------------------------------------------|
D |-------------------------------------------------------|
A |---------------111111-333-777--------------------------|
D |-000000-333333-----------------------------------------| x2 

Chorus:

G |-------------------------------------------------------|
D |-------------------------------------------------------|
A |----------33333333-----------11111111------------------|
D |-33333333----------00000000----------------------------| 

G |-------------------------------------------------------|
D |-------------------------------------------------------|
A |----------33333333--555555555-11111111-----------------|
D |-33333333----------------------------------------------| 

G |-------------------------------------------------------|
D |-------------------------------------------------------|
A |-888888887-333333323-555555575-11111111----------------|
D |-------------------------------------------------------| 

G |-------------------------------------------------------|
D |-------------------------77----------------------------|
A |-888888887-333333323-555----77-111111111-777777777-----|
D |-------------------------------------------------------| 

Violin part:
[ Tab from: http://www.guitartabs.cc/tabs/a/avenged_sevenfold/afterlife_btab_ver_7.html ]
G |-------------------------------------------------------|
D |-------------------------------------------------------|
A |-----------------111-111-111-111-----------------------|
D |-000-000-000-000-----------------555-555-555-555-------| 

G |-------------------------------------------------------|
D |-------------------------------------------------------|
A |---------------------------------111-111-111-111-------|
D |-111-111-111-111-000-000-000-000-----------------------| 

G |-------------------------------------------------------|
D |-------------------------------------------------------|
A |-------------------------------------------------------|
D |-555-555-555-555-888-888-777-777-----------------------| 

Bridge:

G |-------------------------------------------------------|
D |-------------------------------------------------------|
A |----------1-111-35-------------------------------------|
D |-0-000-35----------5-555-35-8-88-7-77------------------|  x2

G |-------------------------------------------------------|
D |-------------------------------------------------1415--|
A |----------1-111-35-10-10101010-131313131313-1213-------|
D |-0-000-35----------------------------------------------|

G |-------------------------------------------------------|
D |-------------------------------------------------------|
A |----------1-111-35-------------------------------------|
D |-0-000-35----------5-555-35-8-88-7-77------------------| 

Solo:

G |-------------------------------------------------------|
D |-------------------------------------------------------|
A |---------------111111111111----------------------------|
D |-000000000000---------------555555555555-8888877777----| x4

G |-------------------------------------------------------|
D |-------------------------------------------------------|
A |-55555-------33333-------55555-------33333-------------|
D |-------0-000-------2-222-------0-000-------2-222-------|

G |-------------------------------------------------------|
D |-------------------------------------------------------|
A |-55555-----------33333---------------------------------|
D |-------00000-000--------22222-222----------------------| x2

G |-------------------------------------------------------|
D |-------------------------------------------------------|
A |-------------------------------------------------------|
D |-0-2-3-5-3---------------------------------------------|

Chorus/Ending:

G |-------------------------------------------------------|
D |-------------------------------------------------------|
A |-888888887-333333323-555555575-11111111----------------|
D |-------------------------------------------------------| 

G |-------------------------------------------------------|
D |--------75-----5--53----------------777-5--------------|
A |-888888----3333-3----55555555-11111--------------------|
D |-------------------------------------------------------|

G |-------------------------------------------------------|
D |-------------------------------------------------------|
A |-888888887-333333323-555555575-11111111----------------|
D |-------------------------------------------------------| 

G |----------------------------------------------------0--|
D |------------------------77--------------------------0--|
A |-888888887-333333323-555---77-1111111111-7777777777-0--|
D |----------------------------------------------------0--|
Comments