Avenged Sevenfold - Afterlife Chords & Tabs

 

Afterlife Chords & Tabs

Avenged Sevenfold Chords & Tabs

Version: 1 Type: Bass Tab 0 ratings
1 star 2 stars 3 stars 4 stars 5 stars
comments

Afterlife Bass Tab

   
this is kind of hard to figur out....
tabed my Trooper Headly
if this tab is wrong, e mail me at "djsnap28@yahoo.com"

piano thingy at the beging 
then
G|--------------------------------------------|  |---|
D|0000~--0-0----------------------------------|  |-0-|
A|----------3333~--3-3--------------------0--3|  |---|
E|---------------------3333~--3-30000~--0-0---|X2|---|

*riff*

G|------|
D|------|
A|------|
E|30506~|

then you come in

G|---------------------------|  |-------|
D|---------------------------|  |-------|
A|6h7h8h9p8p7p6h7h8h9p8p7p6--|  |-------|
E|-------------------------00|X2|3~5~6~~|all this X4

bass solo thing
(i am spreading the notes out so you san see what they are
notbecause they are played slow, acutualy they are played fast)
G|-------------------------------------------|
D|-------------------------------------------|
A|-------------------------------------------|
E|0-12-0-10-00-15-0-14-12h13h14h15-0000-5-10~|X3

then after the guitar playes the "solo" with you, you play....

G|---------------------|
D|---------------------|
A|---------------------|
E|8-88-8-8-12-10-12-10~|
stright after that you play

G|---------------------0-55|
D|-------------0----0------|
A|--------0--0-------------|
E|0----0-------------------|X2

then i goes in to a "slow" part

G|----------------------------------------|
D|00000000--------------------------------|
A|--------00000000-------------------00033|
E|----------------3333333300000000333-----|X2
on the second tine in the "slow" part, you hold the D
right afteryou come off the last C.
then

G|---------------------------|  |-------|
D|---------------------------|  |-------|
A|6h7h8h9p8p7p6h7h8h9p8p7p6--|  |-------|
E|-------------------------00|X2|3~5~6~~|all this X4

then

[ Tab from: http://www.guitartabs.cc/tabs/a/avenged_sevenfold/afterlife_btab.html ]
G|-------------------------------------------|
D|-------------------------------------------|
A|-------------------------------------------|
E|0-12-0-10-00-15-0-14-12h13h14h15-0000-5-10~|X3

then 

G|---------------------|
D|---------------------|
A|---------------------|
E|8-88-8-8-12-10-12-10~|

then

G|---------------------0-55|
D|-------------0----0------|
A|--------0--0-------------|
E|0----0-------------------|X2


G|----------------------------------------|
D|00000000--------------------------------|
A|--------00000000-------------------00033|
E|----------------3333333300000000333-----|X4
yet again, on the fourth think in the "slow"part,you hold the D
right afteryou come off the last C.

this is the easyest part

E|000-000-000-000|X8

then

G|------------|
D|0~~---------|
A|---0~~------|
E|------3~~0~~|

then the long guitar solo.


G|-------|                 
D|0~-----|            
A|--3~---|         
E|----0~~|X2

G|-------------------------------------------------------|
D|000000000000000----------------------------------------|
A|---------------3333333333333333----------------00003333|
E|-------------------------------0000000000000000--------|X2
it may look alot but it is played fast to you skim over it fast

G|----------------------------------------|
D|00000---------------00000---------------|
A|----------33333---------------33333-----|
E|-----0-000-----0-000-----0-000-----0-000|
then

G|----------------------------------------|
D|00000-----------------------------------|
A|--------------------33333---------------|
E|-----00000-00000-000-----00000-00000-000|X2

then after that dark sounding part, you play this

E|3~5~6~8~7~~|


G|----------------------------------------|  |-----------|
D|00000000--------------------------------|  |--------0~~|
A|--------00000000-------------------00033|  |33033030---|
E|----------------3333333300000000333-----|X4|--------0~~|



and there ya have it, one bass tab of the avenged sevenfold afterlife
Comments