Avenged Sevenfold - A Little Piece Of Heaven Chords & Tabs

 

Avenged Sevenfold Chords & Tabs

Version: 1 Type: Bass Tab 0 ratings
1 star 2 stars 3 stars 4 stars 5 stars
comments

A Little Piece Of Heaven Bass Tab

   
              A little piece of heaven by Avenged Sevenfold


Tuning: drop D (DADG)


Intro:
G---------------------------------------|
D---------------------------------------|x2
A---------------------------------------|
D-000000000000000000-333333333333333333-|

Pre-verse:
G-------------------------------------|
D-------------------------------------|x2
A----------44-44-44-------------------|
D-00-00-00----------33-33-33-66-66-66-|

Verse:
G-------------------------------------------------|    --------------------------------|
D-------------------------------------------------|x2  --------------------------------|
A-------------4---4---4---------------------------|    -----------3-2-------------3-5--|
D-0-3-0-3-0-3---7---7---7-6-9-6-9-6-9-0-3-0-3-2-1-|    -02357-356-------02357-356------|

''Must've stubbed...''
G------------------------------------------------------------------------------------|
D--------------------------------------------------------------5875-----------5875---|
A-5---4---------------5---4----------------------------5-05-057----87-4-04-047----87-|
D---------3-6-3-6-3-6---------3-6-3-6-3-6-6-9-6-9-6-9--------------------------------|

Pre-chorus:
G----------------------|
D----------------------|x2
A----------------------|
D-0-2--8-7--5-7-3-5-2--|
[ Tab from: http://www.guitartabs.cc/tabs/a/avenged_sevenfold/a_little_piece_of_heaven_btab.html ]
-----------------------------------------------------------------------------------|
---3-0--------7--------------------------------------------------------------------|
-1~----3~--8~--8-55555-11111-33333-88888-55555-11111-33333-44444-55555-33333-1~-3~-|
-----------------------------------------------------------------------------------|

Chorus
G----------------------------------------------------------------------------------|
D-----------------------------------------------------------------------------87---|
A-11111111-33333333-888810777h887-55555-333333-111111111-3333333557-8888107777-----|
D----------------------------------------------------------------------------------|

------------------------------|
------------------------------|
55555-33333-11111111-33333333-|
------------------------------|

Verse

''Must've stubbed...''

Pre-chorus

Chorus

Bridge
G-----------------|   ------------------------------------------|
D-----------------|x2 ------------------------------------------|x2
A-------4---------|   -555555578-11111111----------333333334444-|
D-0-3-2---3-6-5-2-|   --------------------55555555--------------|

No bass from 5:50 to 5:58

G---------------------------------------|   ------------------|
D---------------------------------------|x2 ------------------|
A---------------------------------------|   ------------------|
D-000000000000000000-333333333333333333-|   -6666666666666666-|

Pre-chorus

Chorus

Enjoy!
Comments