Avantasia - Anywhere Chords & Tabs

 

Anywhere Chords & Tabs

Avantasia Chords & Tabs

Version: 2 Type: Tab 0 ratings
1 star 2 stars 3 stars 4 stars 5 stars
comments

Anywhere Tab

e|------------9-10--10-9-7-------------|
B|-7-9/12--12--------------10----------|
G|----------------------------11-7-9---|
D|-------------------------------------|
A|-------------------------------------|
E|-------------------------------------|


e|------------9-10--10-9-7-----14--------12-------|
B|-7-9/12--12--------------10----15--15----14--14-|
G|---------------------------------14--------14---|
D|------------------------------------------------|
A|------------------------------------------------|
E|------------------------------------------------|

[ Tab from: http://www.guitartabs.cc/tabs/a/avantasia/anywhere_tab_ver_2.html ]
e|-14--14-15-17-17-15-14-12--12-14-15-15-14-12-----------------|
B|---------------------------------------------15--16-15-16-15-|
G|-------------------------------------------------------------|
D|-------------------------------------------------------------|
A|-------------------------------------------------------------|
E|-------------------------------------------------------------|


e|-------------------------------------------------------------|
B|----------16-------------------------------------------------|
G|-15-17-17-----18---------------------------------------------|
D|-------------------------------------------------------------|
A|-------------------------------------------------------------|
E|-------------------------------------------------------------|

Hope u enjoy playin' it
for mistakes please mail to:-rhapsody-@tiscali.it
Comments