Avail - Deepwood Chords & Tabs

 

Deepwood Chords & Tabs

Avail Chords & Tabs

Version: 1 Type: Bass Tab 0 ratings
1 star 2 stars 3 stars 4 stars 5 stars
comments

Deepwood Bass Tab

Band: AVAIL
Song: Deepwood
Album: Over the James
Tabbed by: ryan G
verse
G:-----------
D:-----------
A:--5----5--
E:----3----5
pre-chorus
G:------------
D:------------
A:------5-5-
E:-3-3-----5
chorus
G:----------------------------------------
D:----------------------------------------
A:---------------5----------------5------
E:-3-3-3-3-5-----3-3-3-3-5----5-3

G:-------------------------
D:-------------------------
A:------------5-5-5-5---
E:-3-3-3-3------------5-
bridge
G:--------------------------
D:----3-2-0---3-2-0----
A:-2---------2-------------
E:----------------------3-3


[ Tab from: http://www.guitartabs.cc/tabs/a/avail/deepwood_btab.html ]
Comments