Autumn Leaves - Forever The Destiny Chords & Tabs

 

Forever The Destiny Chords & Tabs

Autumn Leaves Chords & Tabs

Version: 1 Type: Tab 0 ratings
1 star 2 stars 3 stars 4 stars 5 stars
comments

Forever The Destiny Tab

   
Autumn Leaves- Forever the Destiny (tab ver. 1.0)

from 'Embraced by the Absolute'

Transcribed by: Nick Beato (entity@cfl.rr.com)

I'd like to say that a lot of people have been stealing my tabs recently...
If you think there is something wrong with it, and you base a version off
of mine, that's fine by me. JUST PLEASE DONT FUCKING REMOVE MY NAME WHEN IT
IS BLATANTLY OBVIOUS THAT YOU LEARNED MOST OF THE SONG FROM MY TAB.
I would actually like to see your ideas. So please email them...

And for those of you, who dont change anything, go fucking shoot yourselves.
I spend a lot of time tabbing songs for free because I know there's people
out there that want to know how to play them. If you want to add your name
to it, I could care less. Just don't remove my name or the website please.

sorry, just needed to vent at some of the internet lamers out there.

here's the tab...


tune down 2.5 steps (B E A D F# D low to high)

riff A

*for the second half, tremelo pick the pedal note and just hit the
other notes with downstrokes of the tremolo picking

gtr 1
----------------------------------------------------------------------------
----------------------------------------------------------------------------
----------------------------------------------------------------------------
----------------------------------------------------------------------------
-----------------10-----9-----7~~~-----9----10----12-------12-----14--------
-0-0-000-0-0-000----000---000-----8"-----8"----8"----10"------10"----10"-15-
 . . ... . . ...    ...   ...

gtr 2 (plays same as gtr1 after the intro)
----------------------------------------------------------------------------
----------------------------------------------------------------------------
----------------------------------------------------------------------------
----------------------------------------------------------------------------
-2--------------------------------2-----------------------------------------
-0--------------------------------0.----------------------------------------

gtr 1&2
----------------------------------------------------------------------------
------------------------------ph--------------------------------------------
------------------------------9~~~------------------------------------------
-------------------------------------------------------------------------12-
-----------------10-----9--------------9----10----12-------12-----14--------
-0-0-000-0-0-000----000---000-----8"-----8"----8"----10"------10"----10"----
 . . ... . . ...    ...   ...

riff B1

gtr1&2

1-3                               4
---------------------------------|--------------------
---------------------------------|--------------------
---------------------------------|--------------------
---------------------------------|--------------------
-----4---5-------4-------5---4---|-3"------5"---------
-0---2---3---0---2---0---3---2---|--------------------
 .   .   .   .   .   .   .   .

riff B2

1-3               4
-----------------|----------------
-----------------|----------------
-----------------|----------------
-----------------|----------------
---4-5---4---5-4-|-3"---5"-----2--
-0-2-3-0-2-0-3-2-|-------------0.-
 . . . . . . . .

Riff C

gtrs 1&2

-----------------------------------------------------
-----------------------------------------------------
-----------------------------------------------------
-----------------------------------------------------
-2---------------------------2---------------4-7-4---
-0-----0-000-3-/-6---6-/-9---0-----0-000-3-6-------6-
       . ...                       . ...

-----------------------------------------------------
-----------------------------------------------------
-------------------------------------------3---------
---------------------------------------------5-2-----
-2-----------1-/-4---4-/-7---2-------------------4-1-
-0-----0-000-----------------0-----0-000-0-----------
       . ...                       . ... .

riff C'

-----------------------------------------------------
-----------------------------------------------------
-----------------------------------------------------
-----------------------------------------------------
-2-----------5-/-8---8-/-11--2---------------4/7-----
-0-----0-000-3-/-6---6-/-9---0-----0-000-3-6-----9-6-
       . ...                       . ...

----------------------------------------slight-bend--
-------------------------------------------V---------
-------------------------------------------3---------
-------------3-/-6---6-/-9-------------------5-2-----
-2-----------1-/-4---4-/-7---2-------------------4-1-
-0-----0-000-----------------0-----0-000-0-----------
       . ...                       . ... .

riff D

-----------------------------------------------------------------
-----------------------------------------------------------------
-----------------------------------------------------------------
-----------------------------------------------------------------
-------7/8---7/8~~-------7-------------7/8---7/8~~---------------
-0-000-5/6-0-5/6~~-6-7-9---9-7-6-0-000-5/6-0-5/6~~-3-2-0-5-3-6-5-
 . ...     .       . . .   . . . . ...     .       . . . . . . .

riff E

-----------------------------------------------------------------
-----------------------------------------------------------------
-----------------------------------------------------------------
---------8"--9"--------------------------------------------------
-----7"--------------10"-9"--------------9"--10"-----10"-9"------
-0"--------------7"----------10"-8"--------------7"--------10"---

riff F1

gtr 1
-----------------------------------------------------------------
-----------------------------------------------------------------
-----------------------------------------------------------------
---------------------------------5-------------------------------
-2---------------4-------5-------3-------------------------------
-0---------------2-------3---------------------------------------

gtr 2
-----------------------------------------------------------------
-5-5-5-5-5-5-5-5-7-7-7-7-8-8-8-8---------------------------------
---------------------------------5-5-5-5-5-5-5-5-5-5-5-5-5-5-5-5-
-----------------------------------------------------------------
-----------------------------------------------------------------
-----------------------------------------------------------------

riff F2
[ Tab from: http://www.guitartabs.cc/tabs/a/autumn_leaves/forever_the_destiny_tab.html ]
gtr 1&2 play F1

gtr3
-3-3-3-3-3-3-3-3-5-5-5-5-7-7-7-7---------------------------------
---------------------------------5-5-5-5-5-5-5-5-5-5-5-5-5-5-5-5-
-----------------------------------------------------------------
-----------------------------------------------------------------
-----------------------------------------------------------------
-----------------------------------------------------------------

gtr3
-7-7-7-7-7-7-7-7-8-8-8-8-10-10-10-10-12-12-12-12-12-12-etc-------
-----------------------------------------------------------------
-----------------------------------------------------------------
-----------------------------------------------------------------
-----------------------------------------------------------------
-----------------------------------------------------------------

riff F3

gtr 2 play F1

gtr1
------2p0-3p0-5p0-7p0---5p0-3p0-8p0-7p0-5p0-7p0-10p0-8p0-7p0-5p0-
-----------------------------------------------------------------
-----------------------------------------------------------------
-----------------------------------------------------------------
-----------------------------------------------------------------
-----------------------------------------------------------------

riff F4

gtr1 play F3
gtr2 play F1
gtr3 play F2

gtr4
-----------------------------------------------------------------
------2p0-3p0-5p0-7p0---5p0-3p0-8p0-7p0-5p0-7p0-10p0-8p0-7p0-5p0-
-----------------------------------------------------------------
-----------------------------------------------------------------
-----------------------------------------------------------------
-----------------------------------------------------------------

riff F5

gtr1
------2p0-3p0-5p0-7p0---5p0-3p0-10p8p7-10p8p7-10p8p7-etc-12~.----
-----------------------------------------------------------------
-----------------------------------------------------------------
-----------------------------------------------------------------
-----------------------------------------------------------------
-----------------------------------------------------------------
gtr4
--------------------------------10p8p7-10p8p7-10p8p7-etc-12~.----
------2p0-3p0-5p0-7p0---5p0-3p0----------------------------------
-----------------------------------------------------------------
-----------------------------------------------------------------
-----------------------------------------------------------------
-----------------------------------------------------------------

gtr 2
-----------------------------------------------------------------
-5-5-5-5-5-5-5-5-7-7-7-7-8-8-8-8---------------------------------
---------------------------------5-5-5-5-5-5-5-5-5-5-5-5-5.------
-----------------------------------------------------------------
-----------------------------------------------------------------
-----------------------------------------------------------------
gtr3
-3-3-3-3-3-3-3-3-5-5-5-5-7-7-7-7---------------------------------
---------------------------------5-5-5-5-5-5-5-5-5-5-5-5-5.------
-----------------------------------------------------------------
-----------------------------------------------------------------
-----------------------------------------------------------------
-----------------------------------------------------------------

Riff B3 (bass alone first few times)

gtr1&2

1-3                               4
---------------------------------|--------------------
---------------------------------|--------------------
---------------------------------|--------------------
---------------------------------|--------------------
-----4---5-------4-------5---4---|-2/3-3-3/5-5-5-5----
-0---2---3---0---2---0---3---2---|--------------------
 .   .   .   .   .   .   .   .

Transition B-G

-------------------------<5>------------------
-----------------------------<5>--------------
-------------------------------------<5>------
----------------------------------------------
-2--------------------------------------------
-0------------------------------------------0-
                                            .

Riff G

-----------------------------------------------------------------
-----------------------------------------------------------------
-----------------------------------------------------------------
-----------------------------------------------------------------
-------8/9-------------8/9-------------8/9-------------7\5---5\4-
-0-000-6/7-0-0-0-0-000-6/7-0-0-0-0-000-6/7-0-0-0-0-000-5\3-0-3\2-
 . ...     . . . . ...     . . . . ...     . . . . ...

Transition G-A

----------------
----------------
----------3"----
-------2"-------
----1"-------2.-
-0"----------0.-

play riff A

End chord

-----
-----
-----
-----
-2.--
-0.--

Solo (over Riff A) with wah pedal

-----15p14p12-14p12-15p14p12-17p15p12-15p14p12-17p15p12-
-/12----------------------------------------------------
--------------------------------------------------------
--------------------------------------------------------
--------------------------------------------------------
--------------------------------------------------------

-14p12-15p12-17p12-17bf--bf17--r17h19p17p15-14~~~~~~----
--------------------------------------------------------
--------------------------------------------------------
--------------------------------------------------------
--------------------------------------------------------
--------------------------------------------------------

--------------------------------------------------------------
//12--15---15bfr bf----13h15p13---12h13p12-10h12p10-8\7-------
--------------------------------------------------------9~~~--
--------------------------------------------------------------
--------------------------------------------------------------
--------------------------------------------------------------

---------15h19p15----------------15/20-19"-|-20"-22"--24~~~--
-------17--------17------------------------|-----------------
-----16------------16-------17/21----------|-----------------
---17----------------17/19~~---------------|-----------------
-19----------------------------------------|-----------------
-------------------------------------------|-----------------

delay loops last part of solo and that's the end....


please email any corrections or comments:
entity@cfl.rr.com

This file was downloaded from...
Musical Manifestations
(http://home.cfl.rr.com/xezlorir/mm)
if the link is not found, email: Xezlorir@hotmail.com
Comments