Autopsy - Twisted Mass Of Burnt Decay Chords & Tabs

 

Twisted Mass Of Burnt Decay Chords & Tabs

Autopsy Chords & Tabs

Version: 1 Type: Tab 0 ratings
1 star 2 stars 3 stars 4 stars 5 stars
comments

Twisted Mass Of Burnt Decay Tab

-AUTOPSY - TWISTED MASS OF BURNT DECAY from the "Mental Funeral" CD (c) 1991 Vile Music
-Transcribed by Chris Myhre. Version 1.4 Feb 2000 (ver 1.3b July 97)
-For questions, corrections, etc email me: bowel_ripper@hotmail.com
-For best print edit the left/right margins in page setup to make the tab fit the sheet
-Tuning: two steps down (1:C, 2:G, 3:D#, 4:A#, 5:F, 6:C)
-Notation legend: / = slide up; \ = slide down; " = tremolo pick
								       __x4
1>|------------------x4--------------------------x4-------------------|2,4|
2>|-------------------|----------------2nd time: x2-----------------------|
3>|-------------------|---------------------------|-----------------------| gtr 1 & 2
4>|---5--4-----4/5-4--|---------------------------|-----------------------| x2
5>|4--3--2--3--2/3-2--|4"--------5\4-3"--------2--|4"----7/8-7"-----3--5--|
6>|2--------1---------|2"--------3\2-1"--------0--|2"----5/6-5"-----1--3--|

  |---------------------------x8---------(w/lead)----------------x2
  |----------------------------|----------------------------------|
  |------5-----------4-5-4-----|----------------------------------|
  |----4---4-------3-------3---|-------3--------------------------|
  |--3-------3---2-----------2-|2------1-3-------7-----3--6-------|
  |2-----------1---------------|0--------1-------0-----3--6-------|

  |(w/lead)-------------x4
  |----------------------|
  |----------------------|
  |--------------------4-|
  |6"--------5"------2-2-|
  |4"--------3"------0---|
[ Tab from: http://www.guitartabs.cc/tabs/a/autopsy/twisted_mass_of_burnt_decay_tab.html ]
Comments