Autopsy - Spinal Extractions Chords & Tabs

 

Spinal Extractions Chords & Tabs

Autopsy Chords & Tabs

Version: 1 Type: Tab 0 ratings
1 star 2 stars 3 stars 4 stars 5 stars
comments

Spinal Extractions Tab

   
-AUTOPSY - SPINAL EXTRACTIONS from the "Acts of the Unspeakable" CD (c) 1992 Vile Music
-Transcribed by Chris Myhre. Version 1.0 Sept 2000
-For questions, corrections, etc email me: bowel_ripper@hotmail.com
-For best print edit the left/right margins in page setup to make the tab fit the sheet
-Tuning: two steps down (1:C, 2:G, 3:D#, 4:A#, 5:F, 6:C)
-Notation legend: . = palm mute; / = slide up
[ Tab from: http://www.guitartabs.cc/tabs/a/autopsy/spinal_extractions_tab.html ]
   riff A
1>|gtr 1 & 2----------------------------------|----------------x4---|------|
2>|-------------------------------------------|-----------------'---|------|
3>|-------------------------------------------|-----------------'---|repeat|
4>|---6--5------------------------------------|----4----4----4--'---|riff A|
5>|4--4--3--4--10/11-10--8/9-8--7/8-7--6/7-6--|----2----2----2--'3--|------|
6>|2--------2---8/-9--8--6/7-6--5/6-5--4/5-4--|11112--112--112--'1--|------|
					       ....   ..   ..

  |----------------x4---------------------------------|
  |-----------------|---------------------------------|
  |-----------------|---------------------------------|
  |----4----4----4--|---------------------------------|
  |----2----2----2--|---------------------------------|
  |11112--112--112--|4-5-6-3----3-4-5-2----2-3-4-1----|
   ....   ..   ..    . . . .    . . . .    . . . .
Comments