Autopsy - Skullptures Chords & Tabs

 

Skullptures Chords & Tabs

Autopsy Chords & Tabs

Version: 1 Type: Tab 0 ratings
1 star 2 stars 3 stars 4 stars 5 stars
comments

Skullptures Tab

Autopsy - Skullptures.
____________________________________________________________________________
____
-AUTOPSY - SKULLPTURES from the "Acts of the Unspeakable" CD (c) 1992 Vile Music
-Transcribed by Chris Myhre. Version 1.0 June 99
-For questions, corrections, etc email me: cmyhre@ha-nett.no
-For best print set right:0.27cm left:0.27cm in your web browser's page setup
-Tuning: two steps down (1:C, 2:G, 3:D#, 4:A#, 5:F, 6:C)
-Notation legend: ^ = trill; " = tremolopick(fast pick); h = hammer-on; . = palm mute;
                  \ = slide down; p = pull-off; ~ = vibrato

   gtr 1 & 2    x4                                                                 x4
1>|w/fill 1------'---------------------------------------------|--------------------'
2>|--------------'---------------------------------------------|--------------------'
3>|--------------'---------------------------------------------|--------------------'
4>|--------------'---------------------------------------------|----------------7^--'
5>|2------2-2-2--'2--------3-2------7^---2----------3----4--8--|------------9^------'
6>|0------0-0-0--'0--------1-0---------6-0--------0-1----4--8--|7"---8"-7"----------'
          . . .

   fill 1, gtr3 (higher notes) & gtr4 (lower)
  |14--13-\---13---------14--13-\---13-----------------|
  |12-------------15-\---12-------------15----12-------|
  |----10-\---10-------------10-\---10--------11-------|
  |---------------12-\------------------12-------------|
  |----------------------------------------------------|
  |----------------------------------------------------|

                *gtr1 plays             _________ ____
    riff A     higher notes x4  riff B | 1-3     |4  x4   gtr1 plays fill 2 3rd time
[ Tab from: http://www.guitartabs.cc/tabs/a/autopsy/skullptures_tab.html ]
'--------------------------|------------------------|------------------------------
'------------------*---*---|------------------------|------------------------------
'------------------6^------|------------------------|------------------------------
'------------------4^--8^--|--------------------4---|--3-4-------------------------
'----------------------6^--|1"--------2"-----2"-2---|2-----5-4---4-----------------
'0"---1"-0"--7\6~----------|----1"-0"-----3"--------|----------6---6-5-2-5-2-1-4-1-
                     ____ _____
                    |1,3 |2,4 x4     fill 2 (gtr1 harmonize)
  -----------------------------||-----------------------------------------------------|
  -----------------------------||-----------------------------------------------------|
  -----------------------------||-----------------------------------------------------|
  ---3-4-----------------------||--6-7---------------------------6-7------------------|
  -2-----5-4---4----------*----||5-----8-7---7-----------------5-----8-7---7----------|
  -----------6---6-5-1~---6~---||----------9---9-8-5-8-5-4-7-4-----------9---9-8-4~---|
        *last time end abruptly with no ~
                                        _____ _______________
            * gtr1 plays higher notes  | 1   |  2           x2

|----------------------------------------------------------|--------7--8----7h8p7-6----|
|1=gtr2 plays lower-*1----------------*--*-----------------|5----6--7--8----7h8p7-6----|
|note only 1st time----------------------------------------|4----5---------------------|
|-------------------6^----------------4^-------------------|---------------------------|
|---------------4h5-------------------4^-3^-3^----3--------|---------------------------|
|2"--2"\1"--2"------4^-2"--2"\1"--2"-----3^----3^-1--------|---------------------------|

   _____________________ _____________________________
     1-7                |    8                       x8
  |---------------------------------------------------|-----------'-------|
  |(lead starts 5th time)-----------------------------|-----------'abrupt |
  |---------------------------------------------------|  repeat   'end ---|
  |---------------------------------------------------| riffs A/B '-------|
  |2----3--2--3--\--1----2----3--2--3----2--1---------|-----------'2------|
  |0----1--2--3--\--1----0----1--2--3----2--1---------|-----------'-------|
Comments