Autopsy - Lobotomized Chords & Tabs

 

Lobotomized Chords & Tabs

Autopsy Chords & Tabs

Version: 1 Type: Tab 0 ratings
1 star 2 stars 3 stars 4 stars 5 stars
comments

Lobotomized Tab

________________________________________________________________________________
-AUTOPSY - LOBOTOMIZED from the "Acts of the Unspeakable" CD (c) 1992 Vile Music
-Transcribed by Chris Myhre. Version 1.0 Dec 97
-For questions, corrections, etc email me: cmyhre@nordi.no
-Tuning: two steps down (1:C 2:G 3:D# 4:A# 5:F 6:C)
-Notation legend: / = slide up; \ = slide down

		      _____ _______
  gtr 1 & 2  	     |1,3  | 2	  x3
1>|--------------------------------'---------------------|--------------------------
2>|--------------------------------'---------------------|--------------------------
3>|--------------------------------'---------------------|--------------------------
4>|--------------------------------'---------------------|--------------------------
5>|3--4--2-----4-3-2--1--2--1/2-2--'3--4--2-----4-3-2----|6------4--3--2---5------4-
6>|1--2-----3--2-1-0--1--2--1/2-2--'1--2-----3--2-1-0----|6------2--1--0---5------2-
[ Tab from: http://www.guitartabs.cc/tabs/a/autopsy/lobotomized_tab.html ]
  -----------------------------------------------------------------------------------
  -----------------------------------------------------------------------------------
  -----------------------------------------------------------------------------------
  -----------------------------------------------------------------------------------
  -3--2---6------4--3--2---5----4----3------4---7---6-----4-5-4-5---4------2------3--
  -1--0---6------2--1--0---5----4----1------2---5---4-----4-5-4-3---2-/13\-0------1--

  -----------------|----------------------------------------------'------------------
  -----------------|----------------------------------------------'------------------
  -----------------|----------------------------------------------'------------------
  -----------------|----3-----3-----3-----4-----3-----3-4---------'----3-----3-----3-
  -6---5-----4-----|--2-----2-----2-----3-----2-----2-----3---5---'--2-----2-----2---
  -4---3-----2-----|1-----1-----1-----2-----1-----1---------2-5---'1-----1-----1-----

  -----------------------------------------|
  -----------------------------------------|
  --------------------------------4-----3--|
  ----4-----3-----3-4-----3---3-----3------|
  --3-----2-----2-----3-----2---------2----|
  2-----1-----1---------2-------1----------|
Comments