Autopsy - Grave Violators Chords & Tabs

 

Grave Violators Chords & Tabs

Autopsy Chords & Tabs

Version: 1 Type: Tab 0 ratings
1 star 2 stars 3 stars 4 stars 5 stars
comments

Grave Violators Tab

-AUTOPSY - GRAVE VIOLATORS from the "Shitfun" CD (c) 1995 Peaceville
-Transcribed by Chris Myhre. Version 1.0 Nov 2000
-For questions, corrections, etc email me: bowel_ripper@hotmail.com
-For best print edit the left/right margins in page setup to make the tab fit the sheet
-Tuning: two steps down (1:C, 2:G, 3:D#, 4:A#, 5:F, 6:C)
-Notation legend: b(r) = half bend (& release); . = palm mute; /\ = slide up/down;
		  ~ = vibrato; ^ = semitone trill; ph = pinch harmonic; * = see note

  * gtr 1 strikes    _________
1>|-this chord only-|  4     x4--w/fill 1----------x3--------------------------------x6
2>|-1st/2nd time--------------|---------------------|---------------------------------|
3>|---------------------------|---------------------|---------------------------------|
4>|*-----------------2--------|---------------------|-------4b--4~------3-------------|
5>|2---5---4---1br---2--------|8--8--8--8--7--------|4--4-4-4b--4~----3---3-----------|
6>|0-----------------0--------|6--6--6--6--5--------|2--2-2---------2-------5-4-0-2/3-|
[ Tab from: http://www.guitartabs.cc/tabs/a/autopsy/grave_violators_tab.html ]
  |----------------------------------------|riff A--------------------x4------------
  |----------------------------------------|---------------------------|------------
  |----------------------------------------|---------------------------|------------
  |----------------------------------------|---------4-----4-----4-----|------------
  |4----3----2----6----5----4----3----2----|7--6--5--2-----2-----2-----|4--4--8-7-6-
  |2----1----0----6----5----4----3----2----|5--4--3----111---111---111-|2--2--6-5-4-
					   slight pm-> ...   ...   ...
  * applies  ___ _____
  --to gtr--|1..| 2  x4--------x4----------------------------* gtr 1 emphasizes--------x2
  --1 only------------|(w/leads)|------------------------------these notes 2nd time-----'
  --------------------|-repeat--|-------------------------------------------------------'
  --------------------|-riff A--|-------------------------------------------------------'
  -8-7-6--8-------*---|---------|2--2--2--2-2-5--5--5--5-5-4*--4--4--4-4*-3*--3--3--3-3-'
  -6-5-4--6--3~--3ph--|---------|0--0--0--0-0-3--3--3--3-3-2---2--2--2-2--1---1--1--1-1-'

  '---------|riff B-------------------------x4-------------------------------x4-----x4
  '---------|--------------------------------|--------------------------------|------|
  '---------|--------------------------------|--------------------------------|repeat|
  '---------|0-----0-----0-----0---------3---|------------5-----4-----3-------|riff B|
  '2--------|0-0-0-0-0-0-0-0-0-0-0-0---2---2-|--5---5---4-----3-----2---2---2-|------|
  '0--------|------------------------1-------|5---4---3-----2-----1-------1---|------|
   slight pm-> . .   . .   . .   . .
							 _____ _____________x4
  |-----------------|-----------------------------------|1-3  |   4          |
  |-----------------|--------------------------------------------------------|
  |-----------------|--------------------------------------------------------|
  |------10---------|--------------------------------------------------------|
  |3--9--8-----8----|11----10--\-5--5--11----10--\-5--6--------5----2--------|
  |1--7--------6----|9-----8---\-3--3--9-----8---\-3--4--3^----3----0--------|

   Fill 1 (gtr 3 w/echo effect)
  |-------------------------------|
  |11~--11~--11~--11~--5~------\--|
  |-------------------------------|
  |-------------------------------|
  |-------------------------------|
  |-------------------------------|
Comments