Autopsy - Funereality Chords & Tabs

 

Funereality Chords & Tabs

Autopsy Chords & Tabs

Version: 1 Type: Tab 0 ratings
1 star 2 stars 3 stars 4 stars 5 stars
comments

Funereality Tab

-AUTOPSY - FUNEREALITY from the "Acts of the Unspeakable" CD (c) 1992 Vile Music
-Transcribed by Chris Myhre. Version 1.0 Mar 2000
-For questions, corrections, etc email me: bowel_ripper@hotmail.com
-For best print edit the left/right margins in page setup to make the tab fit the sheet
-Tuning: two steps down (1:C, 2:G, 3:D#, 4:A#, 5:F, 6:C)
-Notation legend: > = let ring; b(r) = half bend (and release); ~ = vibrato;
 . = palm mute; /\ = slide up/down; * = see note; h = hammer-on

  |gtr 1--* gtr 2 plays--x2--gtr 1 & 2----------------x2------------------------------
  |---------chord only----'----------------------------|------------------------------
  |-----------------------'----------------------------|------------------------------
  |----4----------4----*--'----4----------4------------|------------------------------
  |--3----------3------4--'--3----------3---1----------|3--3--3-3-3-3/4-4--4--4-4-4-4-
  |1----------1--------2--'1----------1--------2b--2~--|1--1--1-1-1-1/2-2--2--2-2-2-2-
   >>>>>>>>>>>>>>>>>>>     >>>>>>>>>>>>>>>>

				   play entire riff two times   *-> only x1 last time
  -----------------------------x2--------------x2--------------x2----------------
  ------------------------------|--------2------'--------5------|----------------
  ------------------------------|------5---5----'------8---8----|----------------
  ------------------------------|----4-------4--'----7-------7--|----6-------3---
  -6--6--6-6-6-6-5--5-5-4-4-4-4-|--3------------'--6------------|--5---5---2---2-
  -6--6--6-6-6-6-5--5-5-4-4-4-4-|2--------------'5--------------|4-------1-------
				 >>>>>>>>>>>>>>> >>>>>>>>>>>>>>>

  -----------------|--* exclude these-----------------------------------------------x2
  -----------------|----chords 2nd time----------------------------------------------|
  -----------------|-----------------------------------------------------------------|
  -----------------|--**--**--**-----------------------------------------------------|
  -3--6--6----6----|2-222-222-222-2/3-3--3--3--33333/5-5--5--5--555\4-4--4-4\3-3--3--|
  -1--4--4---------|0-000-000-000-0/1-1--1--1--11111/5-5--5--5--555\4-4--4-4\3-3--3--|
[ Tab from: http://www.guitartabs.cc/tabs/a/autopsy/funereality_tab.html ]
  |-----------------------x2------------------------------------------------|
  |------------2-----------'------5-----5-----------------5-----5-----------|
  |---------5-----5--------'---------8-----8-----------------8-----8--------| entire
  |------4-----------4-----'------------------7-----------------------7\----| riff x2
  |---3-----------------3--'---6-----------------6-----6--------------------|
  |2-----------------------'5-----------------------5-----------------------|
   >>>>>>>>>>>>>>>>>>>>>>>> >>>>>>>>>>>>>>>>>>>>>>>>>>>>>>>>>>>>>>>>>>

  |------------------------------------------|-------------------------------x4
  |------------------------------------------|--------------------------------|
  |------------------------------------------|--------------------------------|
  |------------------------------------------|------------4-------3---------5-|
  |4----4----7----7b--7--4----4----3----3----|----------------4-5---4-5---4---|
  |2----2----5----5b--5--2----2----1----1----|0-2-2-2-2-2---3-----------3-----|

  |w/lead 1 & 2-----------------------------------------------fade-out|
  |-------------------------------------------------------------------|
  |-------------------------------------------------------------------|
  |--------3---3---------------------------3---3----------------------|
  |4---4---1---1---4---4---3---3---4---4---1---1---4---4---3---3------|
  |2---2-----------2---2---1---1---2---2-----------2---2---1---1------|

   lead 1 gtr 3, higher notes gtr 4
  |---------------------------------------------------13--12br----12~--------------
  |14-----------------------------------12h13~----14--11--10br-14-10~---14---12----
  |11----13--14--11--13--------10-11-13-9-h10~----11-----------11-------11---9--13-
  |------11--12--9---11--11-12-8--9--11-----------------------------------------11-
  |----------------------9--10-----------------------------------------------------
  |----------------------.--.--.--.--.---------------------------------------------

				    lead 2 gtr 3, higher notes gtr 4		  fade-out
  --------------------------------||------------------------------------------------------|
  --------------------------------||14----------13----14----------------------13br--------|
  -13br-(13)br---11-11\10---10~---||11----11--------------11--13----11--10----11br---(12)-|
  -11br-(11)br---9--9-\8----8~----||------11----12------------11----10----------------13--|
  --------------------------------||------------------11--12------------12----------------|
  --------------------------------||------------------------------------------------------|
Comments