Autopsy - Fiend For Blood Keeper Of Decay Chords & Tabs

 

Fiend For Blood Keeper Of Decay Chords & Tabs

Autopsy Chords & Tabs

Version: 1 Type: Tab 0 ratings
1 star 2 stars 3 stars 4 stars 5 stars
comments

Fiend For Blood Keeper Of Decay Tab

-AUTOPSY - FIEND FOR BLOOD/KEEPER OF DECAY from the
 "Fiend for Blood" MCD (c) 1991 Vile Music
-Transcribed by Chris Myhre. Version 1.0 Jan 2000
-For questions, corrections, etc email me: bowel_ripper@hotmail.com
-For best print edit the left/right margins in page setup to make the tab fit the sheet
-Tuning: two steps down (1:C, 2:G, 3:D#, 4:A#, 5:F, 6:C)
-Notation legend: h = hammer-on; . = palm mute; / = slide up; * = see note;
  \ = slide down; ^ = semitone trill; ~ = vibrato; " = tremolopick

   Fiend for Blood
1>|gtr 1 & 2-------------x4--gtr 1---------------x2--gtr 2----------x2------|---------|
2>|-----------------------|-----------------------'------------------|------|---------|
3>|-----------------------|-----------------------'------------------|repeat|---------|
4>|-----------------------|7"-----6"-7"-6"--------'7-----6h7-6-------|riffs |---------|
5>|-----------------------|------------------8"---'--------------8---|------|6--7\----|
6>|5"-----4"-5"-4"---1"---|-----------------------'------------------|------|4--5\----|

   Keeper of Decay
  |riff A-----------------------------------------------------x4----------------------
  |gtr 1 & 2---------------------------------------------------|----------------------
  |------------------------------------------------------------|----------------------
  |------------------------------------------------------------|----------------------
  |----------------------------1h2-/8888888888888877777777-3-3-|2-3-4-2-3-4-2-3-2-3-4-
  |0-0-0-0-0-0-0-0-0-0-0-0-1h2-----------------------------1-1-|0-1-2-0-1-2-0-1-0-1-2-

  --------------x2-----------------------------------------------------------------------|
  ---------------|-----------------------------------------------------------------------|
  ---------------|-----------------------------------------------------------------------|
  --------*--3/4-|----3/4-----3/4-----3/4-5/6-3/4-----3/4-----3/4-----3/4-----3/4--------|
  -2-3-4-2-3-1/2-|3/4-1/2-3/4-1/2-3/4-1/2-3/4-1/2-3/4-1/2-3/4-1/2-3/4-1/2-3/4-1/2-3------|
  -0-1-2-0-1-----|1/2-----1/2-----1/2-------------1/2-----1/2-----1/2-----1/2-----1------|
[ Tab from: http://www.guitartabs.cc/tabs/a/autopsy/fiend_for_blood_keeper_of_decay_tab.html ]
  |-----------'------'---------------* gtr 2-------------'------'---------------* gtr 2--
  |-----------'------'-----------------------------------'------'------------------------
  |-----------'(bass)'--------------------*--------------'(bass)'---------------------*--
  |-----------'------'---------------*---|4--------------'------'---------------*----|4^-
  |3--2-------'------'5----4----3---|6--2|---2--2--------'------'5----4----3---|6--2^|---
  |1--0--(0)--'------'3----2----1--4|--------0--0--(0)---'------'3----2----1--4|---------
	  .					    .

  ---------------'------'-------------------------------'------'----------|--------
  ---------------'------'-------------------------------'------'----------|--------
  ---------------'(bass)'-------------------------------'(bass)'----------|--------
  ---------------'------'----------------4--------------'------'----------|--------
  -2/3--2--------'------'5----4----3--6-----2--2--------'------'5----4----|2----2--
  -0/1--0--(0)---'------'3----2----1--------0--0--(0)---'------'3----2----|1----1--
	    .					   .

  ------------|-----------------------------------|--------------------|--------------
  ------------|-----------------------------------|--------------------|--------------
  ------------|-----------------------------------|--------------------|--------------
  ------------|-----------------------------------|3----3----3----3----|--------------
  --2----2----|2-3-4-2-3-4-2-3-2-3-4-2-3-4-2-3----|2----2----2----2----|4----2----5---
  --1----1----|0-1-2-0-1-2-0-1-0-1-2-0-1-2-0-1----|1----1----1----1----|4----2----3---
					     ______ __________
  -------* gtr 1------------------'---------| 1    | 2       x2------|-----------------|
  --------------------------------'---------------------------|------|-----------------|
  -----------*------*-------------'---------------------------|repeat|-----------------|
  ----------|6-----|4------*------'---------------------------|riff A|-----------------|
  --*--*---4|-----2|-----5|5------'4----2----5------5---4-3---|------|2-3-4-2-3-4-2-3--|
  --3~-3~--4|-----2|-----3|-------'4----2----3------3---2-1---|------|0-1-2-0-1-2-0-1--|
Comments