Autopsy - Disembowel Chords & Tabs

 

Disembowel Chords & Tabs

Autopsy Chords & Tabs

Version: 1 Type: Tab 0 ratings
1 star 2 stars 3 stars 4 stars 5 stars
comments

Disembowel Tab

________________________________________________________________________
-AUTOPSY - DISEMBOWEL from the "Severed Survival" CD (c) 1990 Peaceville
-Transcribed by Chris Myhre. Version 1.1 June 2002 (last ver: 1.0 Dec 99)
-Email: bowel_ripper@hotmail.com - Website: http://home.no.net/bowelrip
-For best print edit the left/right margins in page setup to make the tab fit the sheet
-Tuning: 1.75 steps down (somewhere between C and C#)
-Notation legend: * = see note; . = palm mute; \ = slide down; " = tremolo pick

1>|riff A----------------------___ ___x4--riff B1---------------------------------------|
2>|gtr 1 & 2------------------|1,3|2,4 |------------------------------------------------|
3>|------------------------------------|------------------------------------------------|
4>|------------------------------------|------------------------------------------------|
5>|2---2-2-2-2-2-2-3-2-2-3-2-2-3-3-6-5-|2-------3-2-3-------3-2-2-------3-2-3-------3-2-|
6>|0---0-0-0-0-0-0-1-0-0-1-0-0-1-1-4-3-|0-----------1-----------0-----------1-----------|
       . . . . . .   . .   . .      \           " "         " "         " "         " "

|----------|riff B2--------------------------------x2--------------|riff C----________x6
|----------|----------------------------------------'--------------|---------| 1 - 5   |
|--repeat--|----------------------------------------'--------------|-------------------|
|riffs A/B1|----------------------------------------'--------------|-------------------|
|----------|2-----2-2-----2-3-2-3-----3-3-----3-3-2-'2-------------|------6-5-2--------|
|----------|0-----0-0-----0-----1-----1-1-----1-----'0-------------|1-----4-3-0--------|
                            " "                 " "                 "
[ Tab from: http://www.guitartabs.cc/tabs/a/autopsy/disembowel_tab.html ]
 gtr 2 plays octave 4-8  _______ ________          (1st time gtr 1 only)
|riff D-----------------| 1-7   |  8    x8-------|* gtr 2 2nd time------------------------
|--------5---6---------------------------|-------|----------------------------------------
|5---4-----------7---6---3---2-----------|3------|*---*---*---*---------------------------
|--------2---3-------------------3-2-----|3------|----4---3-------------------------------
|3---2-----------5---4---1---0---1-0-----|1------|3---2---1---2-----------2-----------1---
|----------------------------------------|-------|1-----------0---0-0-0-0-----0-0-0-0-----
 "   "   "   "   "   "   "   "                                    . . . .     . . . .

 -------------------x8------------|* gtr 2 strikes chord only--------|gtr 1 & 2---------------
 --------------------'------------|--gtr 1---------------------------|(w/lead)----------------
 --------------------'------------|----------------------------------|------------------------
 --------*-----------'----4---3---|*---------------------------------|----------------4-------
 --------3-----------'3---2---1---|2|----------------3-------6-5-6---|----------------2-------
 0-0-0-0-1---0-0-0-0-'1-----------|0|0---------------1---0---4-3-4---|0-------------------0---
 . . . .     . . . .                 "                   "    \       "                   "

 --------'_______________________________x4---------------x4------|----------|----------------|
 --------'     1 - 3                      |----------------|repeat|(3)-------|----------------|
 --------'--------------------------------|----------------|riffs-|-3--------|----------------|
 3-------'--------------------------------|------------4-3-|B1/B2-|-3--------|----4---3-------|
 1---5-6-'------------------------6-5-6---|------------2-1-|/c/D--|-1--------|3---2---1---2---|
 ----3-4-'0---------------1-------4-3-4---|0-------1-------|------|----------|1-----------0---|
      /   "               "        \       "
Comments