Autopsy - Destined To Fester Chords & Tabs

 

Destined To Fester Chords & Tabs

Autopsy Chords & Tabs

Version: 1 Type: Tab 0 ratings
1 star 2 stars 3 stars 4 stars 5 stars
comments

Destined To Fester Tab

-AUTOPSY - DESTINED TO FESTER from the "Mental Funeral" CD (c) 1991 Vile Music
-Transcribed by Chris Myhre. Version 1.1 Feb 2000 (ver 1.0 Feb 98)
-For questions, corrections, etc email me: bowel_ripper@hotmail.com
-For best print edit the left/right margins in page setup to make the tab fit the sheet
-Tuning: two steps down (1:C, 2:G, 3:D#, 4:A#, 5:F, 6:C)
-Notation legend: h = hammer-on; / = slide up; \ = slide down; ~ = vibrato;
		  " = tremolo pick; * = see note
   gtr 1 & 2								       _____
1>|w/fill 1 3rd time----------x4--* gtr 2 plays these-------------------------| 1  x2
2>|----------------------------|----chords 1st time-------*-----*-------------------|
3>|----------------------------|--------------------*----|5----|4-------------------|
4>|----4---5-------------------|-------------------|4---3|3---2|2-----5-4-3---------|
5>|2---2---3---5-----4---5-4-3-|2-------4-5-3-----2|2---3-----2-------3-2-1-----5---|
6>|0-----------3-----2---3-2-1-|0-------2-3-1-----2-----------------------------3---|

  fill 1 gtr 3
  w/some kind of wah-wah effect	   ________
  |-------------------------------| 2     x2
  |----12---13-----------------------------|
  |9-------------12~-----11~-------9~------|
  |----------------------------------------|
  |----------------------------------------|
  |----------------------------------------|

  |riff A w/fill 2------------x8-------------* gtr 1---------------------|------'
  |----------------------------|-----------------------------------------|------'
  |----------------------------|-----------------------------------------|(bass)'
  |----------------------------|--------------------------7--6-----------|------'
  |4--4--4-3-3-3-3--3--3-7-7-4-|4----6*-7*-3---------4----7*-6*-3--------|------'
  |2--2--2-2-2-1-1--1--1-5-5-2-|2----4--5--1---------2----------1--------|------'

  fill 2 gtr 3
  w/some kind of wah-wah effect		   |start here when riff is repeated below and
  |-------------------------------------------------------------------------------------
  |-------------------------------------------------------------------------------------
  |11--11--11-11-11-\10-10--10--10-10-10-10-11--11--11-11-11-\10-10--10--10-/14-14\(11)-
  |-------------------------------------------------------------------------------------
  |-------------------------------------------------------------------------------------
  |-------------------------------------------------------------------------------------
[ Tab from: http://www.guitartabs.cc/tabs/a/autopsy/destined_to_fester_tab.html ]
  <  skip this part			   >
  -----------------------------------------------------------------------------------|
  -14--14--14-14-14-\13-13--13--13-13-13-13-14--14--14-14-14-\13-13--13--13-/17-17-\-|
  -----------------------------------------------------------------------------------|
  -----------------------------------------------------------------------------------|
  -----------------------------------------------------------------------------------|
  -----------------------------------------------------------------------------------|
			      					 __________________ ______
  '------------'-------'-----|w/fill 3 3rd time-----------------|   1, 3           |2,4  x4
  '------------'-------'-----|------------------------------------------------------------|
  '------------'(bass) '-----|------------------------------------------------------------|
  '------------'-------'5----|-----------------------------------------------------5------|
  '3-2---2-1---'-------'3----|4---2-4--4---4-2-4-2-5---4---2-4--4---4-3-2---2-1----3------|
  '----3-----0-'-------'-----|2---0-2--2---2-0-2-0-3---2---0-2--2---2-----3-----0---------|
  				       __________________ _______
  |fill3 gtr 3------------------------|   1		 | 2    x2
  |--------------------------------------------------------------|
  |--------------------------------------------------------------|
  |------------------------------------------5-4---4-3----5------|
  |4---\2-4--4---4-2-4-2-5---4---\2-4--4---4-----5-----2---------|
  |--------------------------------------------------------------|

  |-----x6--------------------|-------------* gtr 2---------------------------------x4
  |------|--------------------|-----------------------6*---------------exclude this--|
  |repeat|--------------------|--------------------------------------note first time-|
  |riff A|--------------------|-----------------------3-------------------|----------|
  |------|4----7--6--3--------|-------2---------------3---------2---------v----------|
  |------|2----5--4--1--------|0-0--0----0-0--0--0-1-----0-0--0----0-1--1-1-1-3h4-3--|

  |-------------------------------x4--(w/leads)--------------------x6
  |--------------------------------|--------------------------------|
  |--------------------------------|--------------------------------|
  |--------------------------------|--------------------------------|
  |--------------------------------|44444445444444454444444533333333|
  |4"--7"--6"--3"--6"--5"--2"--1"--|22222223222222232222222311111111|
			 _____ ______
  |---------------------| 1   | 2   x2-----------------------------|
  |----------------------------------|-----------------------------|
  |----------------------------------|-----------------------------|
  |----------------------------------|----4---5--------------------|
  |4--4--4-6-6-3-3--3--3-7-7-4-3-3-3-|2---2---3---5-----4---5-4-3--|
  |2--2--2-4-4-1-1--1--1-5-5-2-1-1-1-|0-----------3-----2---3-2-1--|
Comments