Autopilot Off - What I Want Chords & Tabs

 

What I Want Chords & Tabs

Autopilot Off Chords & Tabs

Version: 1 Type: Tab 0 ratings
1 star 2 stars 3 stars 4 stars 5 stars
comments

What I Want Tab

Song: What I want
Author: Autopilot off
Standard tuning

This is an amazing song. I can't believe nobody has tabbed it yet.
Enjoy!


Intro:  

(0:09)

eb|--------------------------|
Bb|--------------------------|
Gb|--------------------------|
Db|--6--4-6--4-6-4-----------|
Ab|--6--4-6--4-6-4-----------|
Eb|--4--2-4--2-4-2-----------|



Verse:

(0:23)

eb|----------------------------|
Bb|----------------------------|
Gb|--13--9--13--9--13--9--11---|
Db|--11--9--13--9--13--9--11---|
Ab|--11--7--11--7--11--7--9----|
Eb|----------------------------|


Chorus: 

(0:40)
[ Tab from: http://www.guitartabs.cc/tabs/a/autopilot_off/what_i_want_tab.html ]
eb|--------------------------|
Bb|--------------------------|
Gb|--4--6--4--6--4--6--9-----|
Db|--4--6--4--6--4--6--9-----|
Ab|--2--4--2--4--2--4--7-----|
Eb|--------------------------|

Solo: (2x)

(1:37)

eb|--------------------------------------------|
Bb|--------------------------------------------|
Gb|--------------------------------------------|
Db|------------------1-----------1---1---------|
Ab|----------------4---2-------4---2---4-2-1---|
Eb|--2-4-2-4-2-4-2-------2-4-2-----------------|


End on:


eb|-------|
Bb|-------|
Gb|--4----|
Db|--4----|
Ab|--2----|
Eb|-------|



Order:  Intro
	Verse	
	Chorus (2x)
	Verse
	Chorus 
	Solo
	Chorus (3x)
Comments