Autopilot Off - Nothing Frequency Chords & Tabs

 

Nothing Frequency Chords & Tabs

Autopilot Off Chords & Tabs

Version: 2 Type: Tab 0 ratings
1 star 2 stars 3 stars 4 stars 5 stars
comments

Nothing Frequency Tab

   
Autopilot Off - Nothing Frequency
Album: Autopilot Off EP
Tuning: E A D G B E
Tabbed By: Dean K. (projectwyze13@hotmail.com)

Intro/Chorus
E-------------------------------------------------------------
B-------------------------------------------------------------
G---77---77777777---99---77777777---99---1111---999---77777777
D---77---77777777---99---77777777---99---1111---999---77777777
A---55---55555555---77---55555555---77---9--9---999---55555555
E-------------------------------------------------------------
[ Tab from: http://www.guitartabs.cc/tabs/a/autopilot_off/nothing_frequency_tab_ver_2.html ]
Verse
E-----------------------------------------------
B-----------------------------------------------
G---77---77---77---1212121212121212-------------
D---77---77---77---1212121212121212-------------
A---55---55---55---1010101010101010-------------
E-----------------------------------------------

Bridge
E---------------------------------------------------
B---------------------------------------------------
G---77---xxxx---77---xxxx---77---xxxxxxxx-----------
D---77---xxxx---77---xxxx---77---xxxxxxxx-----------
A---55---xxxx---55---xxxx---55---xxxxxxxx-----------
E---------------------------------------------------

Outro
E--------------------------------
B--------------------------------
G---777---77---77----------------
D---777---77---77----------------
A---555---55---55----------------
E--------------------------------
Comments