Autopilot Off - Missing The Innocence Chords & Tabs

 

Missing The Innocence Chords & Tabs

Autopilot Off Chords & Tabs

Version: 1 Type: Tab 1 rating
1 star 2 stars 3 stars 4 stars 5 stars
comments

Missing The Innocence Tab

Song: Missing the innocence
Band: Autopilot off 
Album: Looking up
Tabbed by: Petter T.B. (ptberget@hotmail.com)

slides  / (up)  (down)     

Regular tuning.

Intro
e|---------------------------------------------------------------------------------|
B|---------------------------------------------------------------------------------|
G|----/-9-9--11-/-9-9--11-11-11-------------------------------9------------------|
D|----/-9-9--11-/-9-9--11-11-11--11-11--9-9----x3-and-end-on--9-let-ring---------|
A|----/-7-7---9-/-7-7--13-13-13--11-11--9-9-------------------7------------------|
E|----------------------------------9--9--7-7--------------------------------------|

Verse:

After the singer sings: I wish I wasn’t waiting, play this: 
e|-------------------|
B|-------------------|
G|------9------------|
D|---9---------------|
A|-------------------|
E|-------------------|

And then this:
e|---------------------------------------------------------------------------|
B|---------------------------------------------------------------------------|
G|-----0-0-9-0-0-9-----------------------------------------------------------|
D|-----0-0-9-0-0-9----Trough-the-whole-verse---------------------------------|
A|-----0-0-7-0-0-7-----------------------------------------------------------|
E|---------------------------------------------------------------------------|
       P.M.  P.M    (Palm mute the open notes)

Then play the intro one more time exactly as above.

And then verse again.
 
After that’s all done the Chorus comes:
[ Tab from: http://www.guitartabs.cc/tabs/a/autopilot_off/missing_the_innocence_tab.html ]
e|--------------------------------------------------------------------------|
B|--------------------------------------------------------------------------|
G|---9-9-9-9-------------------------------------------------9--------------|
D|---9-9-9-9-11-/-9-9-9-9-11-11-9-9-7-7-9-9------------------9--------------|
A|---7-7-7-7-11-/-9-9-9-9-11-11-9-9-7-7-9-9—--x2-And-end-on--7--------------|
E|------------9-/-7-7-7-7--9--9-7-7-5-5-7-7---------------------------------|

Play the Verse,

Then the Chorus again

Bridge or whatever you want to call it:
First part:
e|-------------------------------------------------------------|
B|-------------------------------------------------------------|
G|-----9-9--11-11--13-13----------------7--6-----------------|
D|-----9-9--11-11--13-13---x3-And-then--9--8--11--9----------|
A|-----7-7---9--9---9--9----------------9--8--11--9----------|
E|-----------------------------------------------9--7----------|




Second part:					Third part:
e|--------------------------------------------------------------------------|
B|--------------------------------------------------------------------------|
G|---9-9-x-9-9-x------------------------------------9-9-9-9-----------------|
D|---9-9-x-9-9-x—--A-lot-of-times,-and-then-play:---9-9-9-9-----------------|
A|---7-7-x-7-7-x------------------------------------7-7-7-7-----------------|
E|--------------------------------------------------------------------------|

2.guitar over the bridge (something like this):

e|-----------------------------|				
B|-----------------------------|
G|------9--11--9------9—-11--9-|
D|---9-------------9-----------|	
A|-----------------------------|
E|-----------------------------|

And end on:

e|-----------|				
B|-----------|
G|----9------|
D|----9------|	
A|----7------|
E|-----------|

Enjoy, this is a really powerful and fun song to play!
Comments