Autopilot Off - Long Way To Fall Chords & Tabs

 

Long Way To Fall Chords & Tabs

Autopilot Off Chords & Tabs

Version: 1 Type: Tab 0 ratings
1 star 2 stars 3 stars 4 stars 5 stars
comments

Long Way To Fall Tab

Song:Long Way To Fall
Band:Autopilot Off
Tabbed By:Eric M. (rufioyc@hotmail.com)

This is probably about 95% right. If you
have any corrections, please email me. 
Thanks,

Intro:(x4)
e|---------------------------------|
B|--------4-4-4--------------------|
G|--------4-4-4-4-4-4-4-4-4-4------|
D|--4-4-4-2-2-2-4-4-4-4-4-4-4------|
A|--4-4-4-------2-2-2-2-2-2-2------|
E|--2-2-2--------------------------|

Verse:			(x2)then...			       (x2)
e|---------------------------------|------------------------------|
B|------------------4-4-4-4-4-4-4--|-----------------4-4-4--------|
G|------------------4-4-4-4-4-4-4--|-----------------4-4-4-4-4-4--|
D|--4-4--4-4--4-4---2-2-2-2-2-2-2--|--4-4--4-4--4-4--2-2-2-4-4-4--|
A|--4-4--4-4--4-4------------------|--4-4--4-4--4-4--------2-2-2--|
E|--2-2--2-2--2-2------------------|--2-2--2-2--2-2---------------|
[ Tab from: http://www.guitartabs.cc/tabs/a/autopilot_off/long_way_to_fall_tab.html ]
Chorus:(x1)
e|---------------------------------------------------|
B|---------------------------------------------------|
G|--2---------------4---------------2----------------|
D|--2-(x15)-2-------4-(x15)-4-------2-(x15)-2--------|
A|--0-------2-(x15)-2-------4-(x15)-0-------2-(x15)--|
E|----------0---------------2---------------0--------|

Interlude:(x4)
e|------------------|
B|---------4-4------|
G|---------4-4-4-4--|
D|--4~-----2-2-4-4--|
A|--4~---------2-2--|
E|--2~--------------|

Chorus 2:(x1)
e|--------------------------------------------------|
B|--------------------------------------------------|
G|--2---------------4---------------2-2-------------|
D|--2-(x15)-2-------4-(x15)-4-------2-2------2~-----|
A|--0-------2-(x15)-2-------4-(x15)-0-0------2~-----|
E|----------0---------------2----------------0~-----|
  pm...............................

For the Outro, play the Intro 7 times plus this...

e|---------------------------------|
B|---------------------------------|
G|--------------4-4-4-4-4----------|
D|--4-4-4-2-2-2-4-4-4-4-4-2-4-2-4--|
A|--4-4-4-2-2-2-2-2-2-2-2-2-4-2-4--|
E|--2-2-2-0-0-0-----------0-2-0-2--|
Comments