Autopilot Off - Divine Intervention Chords & Tabs

 

Divine Intervention Chords & Tabs

Autopilot Off Chords & Tabs

Version: 1 Type: Tab 0 ratings
1 star 2 stars 3 stars 4 stars 5 stars
comments

Divine Intervention Tab

Song: "Divine Intervention"
Band: Autopilot Off
Tabber: Guitar_It_Up
Notes: pretty easy song to play...fun tho...unless you hav the song with you, its hard 
get the rhythm of the strumming down...also, I got most of this from an mxtabs.net tab 
shouldnt take credit for all of it
Tuning:regular, left top three strings off tab for clarity and space

Intro
D]---7~ ----3~ -----5~ ----3~ ------------------------------------------------|
A]---7~ ----3~ -----5~ ----3~ ---(2x)-----------------------------------------|
E]---5~ ----1~ -----3~ ----1~ ------------------------------------------------|

Verse
D]---777777777777------333333333333---(2x)---555555555555---------------------|
A]---777777777777------333333333333----------555555555555---------------------|
E]---555555555555------111111111111----------333333333333---------------------|
[ Tab from: http://www.guitartabs.cc/tabs/a/autopilot_off/divine_intervention_tab.html ]
D]---777777777777-----333333333333-----555555555555-----333333333333----------|
A]---777777777777-----333333333333-----555555555555-----333333333333---(2x)---|
E]---555555555555-----111111111111-----333333333333-----111111111111----------|

Chorus
D]---777777777777------333333333333------------555555555555-------------------|
A]---777777777777------333333333333----(6x)-----555555555555------------------|
E]---555555555555------111111111111------------333333333333-------------------|

D]--777777777777------333333333333-------------5~ ----------------------------|
A]--777777777777------333333333333---(4x)-------5~ ---------------------------|
E]--555555555555------111111111111-------------3~ ----------------------------|

Outro
D]---7~ ----3~ -----5~ ----3~ -----------------7~ ----------------------------
A]---7~ ----3~ -----5~ ----3~ ---(2x)----------7~ ----------------------------
E]---5~ ----1~ -----3~ ----1~ -----------------5~ ----------------------------


(note: ~ = let it ring)
Comments