Autopilot Off - Clockwork Chords & Tabs

 

Clockwork Chords & Tabs

Autopilot Off Chords & Tabs

Version: 1 Type: Tab 0 ratings
1 star 2 stars 3 stars 4 stars 5 stars
comments

Clockwork Tab

Band: Autopilot Off 
Song: Clockwork
Album: Make A Sound

Tuning: Drop D

Intro part 1
Guitar 1
------------------------------
------------------------------
-12---------------------------
--x---strum throughout intro--
-10---------------------------
------------------------------

Guitar 2
---------------------------------------------------------------------
---------------------------------------------------------------------
--5555555555555555------------------5555555555555555-----------------
--5555555555555555-6666666666666666-5555555555555555-6666666666666666
--3333333333333333-6666666666666666-3333333333333333-6666666666666666
-------------------6666666666666666------------------6666666666666666
PM................ ................ ................ ................

Intro part 2
Guitar 1 and 2
-------------------------------------
-------------------------------------
-5-------------5------------3--------
-5-x16--6------5-x16--1-----3-x8-----
-3------6-x16--3------1-x8--1--------
--------6-------------1--------------

Verse 1
Both guitars
"You're probably sick of being tired...."
-----------------------            
-----------------------          
-5---------------------    2x        
-5-ring out-6----------          
-3----------6-ring out-     
------------6----------            

Pre-chorus
"You can't let go..."           "Stuck lying in this burning bed..."
--------------------------------------------------------------------
--------------------------------------------------------------------
-----------------------------------3333333333333-5------------------
-3333333333333-5-6666666666666666--3333333333333-5-6666666666666666-
-3333333333333-5-6666666666666666--1111111111111-3-6666666666666666-
-3333333333333-5-6666666666666666------------------6666666666666666-
[ Tab from: http://www.guitartabs.cc/tabs/a/autopilot_off/clockwork_tab.html ]
Chorus
Both Guitars
"Write it on the walls and read it..."
---------------------------------------------
---------------------------------------------
-------3-----5-----------------3-------------
-1-----3-x8--5-x8--6-----1-----3-x8--6-------
-1-x8--1-----3-----6-x8--1-x8--1-----6-x16---
-1-----------------6-----1-----------6-------

Post-Chorus
Guitar 1
Listen to the song for strumming pattern
-----------------------
-----------------------
-12--13-12--12-10-8----   2x
--x---x--x---x--x-x----
-10--11-10--10--8-6----
-----------------------

Guitar 2
-----------------------
-----------------------
-5-------5----8--------   2x
-5--6-1--5--6-8--------
-3--6-1--3--6-6--------
----6-1-----6----------

Verse 2
Both guitars     
"Time's gonna warn you with a whisper..."
--------------------------------
--------------------------------
-5------------------------------ 2x, second time dont stop, just ring out
-5-stop abbruptly---6-----------
-3------------------6-ring out--
--------------------6-----------

Pre-chorus

chorus

Brigde part 1
Both guitars
"Still there are lines for us to write before we close our eyes..."
-----------------------
-----------------------
-5-----7---------------
-5-x8--7-x8--6---------  x2
-3-----5-----6-x16-----
-------------6---------

"Time will tell everything..."
----------------------------------------
----------------------------------------
----------------------------------------
-66x666x666x666--666666666666666--------
-66x666x666x666--666666666666666--------
-66x666x666x666--666666666666666--------
                 ...............

Brigde part 2
Guitar 1
"Down..."
-----------------------
-----------------------
-5--3------------------  x4
-x--x--6--6/8----------
-3--1--x--x/x----------
-------6--6/8----------

Guitar 2, after guitar 1 does that part twice
-------------------------------------
-------------------------------------
-555-5-55-7-77-7-77-99999999---------  x2
-xxx-x-xx-x-xx-x-xx-xxxxxxxx---------
-333-3-33-5-55-5-55-77777777---------
-------------------------------------
 ...   ..   ..   ..  

repeat chorus

repeat post chorus

End on: 
----
----
-5--
-5--
-3--
----
Comments