Autopilot Off - Clockwork Chords & Tabs

 

Clockwork Chords & Tabs

Autopilot Off Chords & Tabs

Version: 1 Type: Bass Tab

Clockwork Bass Tab

   
  Artist: Autopilot Off
     Song: Clockwork
Tabbed By: Mike Parker
 
Standard Tuning E A D G

Guitar plays and bass kicks in around 00:05

Intro
G----------------------------------------------------------------|
D----------------------------------------------------------------| 
A----------------------------------------------------------------|
E---8~-4~-----8~-4~----------------------------------------------|


G----------------------------------------------------------------|
D----------------------------------------------------------------| 
A----------------------------------------------------------------|
E-8888888888888888-4444444444444444------------------------------|


G----------------------------------------------------------------|
D----------------------------------------------------------------| 
A----------------------------------------------------------------|
E-8888888888888888-00000000-66666666-----------------------------|


Verse

G----------------------------------------------------------------|
D----------------------------------------------------------------| 
A---------------------6-5-3-1-3----------------------------------| X2
E-8888888888888888-4---------------------------------------------|

Pre-Chorus


G------------------------------------------------------------------------|
D------------------------------------------------------------------------| 
A------------------------------------------------------------------------|
E-111111111111111-3-4444444444444444-666666666666666-8-4444444444444444--|

Chorus X2
[ Tab from: http://www.guitartabs.cc/tabs/a/autopilot_off/clockwork_btab.html ]
G-------------------------------------------------------------------------|
D-------------------------------------------------------------------------| 
A-------------------------------------------------------------------------|
E-00000000-66666666-88888888-44444444-00000000-66666666-4444444444444444--|

Pre Verse X2

G----------------------------------------------------------------|
D----------------------------------------------------------------| 
A----------------------------------------------------------------|
E-88888888-444-000-----------------------------------------------|


Verse

Pre Chorus

Chorus


Bridge

G--------------------------------------|
D--------------------------------------|
A--------------------------------------|   X2
E-66666666-88888888-44444444-----------|


G----------------------------------------------------------------|
D----------------------------------------------------------------| 
A----------------------------------------------------------------|
E-44-44-44-44-4444444444444444-----------------------------------|


G----------------------------------------------------------------|
D----------------------------------------------------------------| 
A----------------------------------------------------------------|
E-44-------------44--------------44------------------------------|


Chorus


Outro 

G----------------------------------------------------------------|
D----------------------------------------------------------------| 
A----------------------------------------------------------------| X4
E-88888888-444-000-----------------------------------------------|

End on

G----------|
D----------|
A----------|
E--8-------|