Autopilot Off - 12th Day Chords & Tabs

 

12th Day Chords & Tabs

Autopilot Off Chords & Tabs

Version: 1 Type: Tab 0 ratings
1 star 2 stars 3 stars 4 stars 5 stars
comments

12th Day Tab

----------------------------------------------------------------------------
			 The 12th Day - Autopilot Off
----------------------------------------------------------------------------
Tabbed by: Sam Johnson
Email: elcapitan@charter.net

Tuning: Standard
[ Tab from: http://www.guitartabs.cc/tabs/a/autopilot_off/12th_day_tab.html ]
Intro
e|-------------------------------------------------------------------------|
B|-------9--------9--------9--------9--------9--------9--------9--------9--|
G|-------------------------------------------------------------------------|
D|--6--6---6-6--6---6-6--6---6-6--6---6-6--6---6-6--6---6-6--6---6-6--6----|
A|-------------------------------------------------------------------------|
E|-------------------------------------------------------------------------|

e|--------------------------|    |--------------------------------|
B|--------------------------|    |--------------------------------|
G|--6--6-6-7--7-6--6-6-6-9--|    |--x-9--9-9-9--9-9--9-9-9-9-9-9--|
D|--------------------------|    |--------------------------------|
A|--4--4-4-5--5-4--4-4-4-7--|    |--x-7--7-7-7--7-7--7-7-7-7-7-7--|
E|--------------------------|x7  |--------------------------------|

The rest of the song is based on Am, and that's all Im telling you. You can figure it
out, its good practice.
Comments