Autolux - Capital Kind Of Strain Chords & Tabs

 

Capital Kind Of Strain Chords & Tabs

Autolux Chords & Tabs

Version: 1 Type: Bass Tab 0 ratings
1 star 2 stars 3 stars 4 stars 5 stars
comments

Capital Kind Of Strain Bass Tab

-------------------------------------------------------------------------------
			     Capital Kind of Strain - Autolux
-------------------------------------------------------------------------------
Tabbed by: Witmachine
Email: witmachine@yahoo.com

Final Track of off 2004's Future Perfect.
If you have not seen them play live,
then you are missing out on beauty.

Tuning: Stardard

Sometimes like so:

[ Tab from: http://www.guitartabs.cc/tabs/a/autolux/capital_kind_of_strain_btab.html ]
G|-----------------8------------------------------|
D|-----------6-----------6------------------------|
A|------------------------------------------------|
E|--7--4--7-----7-----7-----7----7----9----9------|

And sometimes like so


G|-----------------8------------------------------|
D|-----------6-----------6------------------------|
A|------------------------------------8----8------|
E|--7--4--7-----7-----7-----7----7----------------|

That's the gist of it.
Comments