Autograph - Turn Up The Radio Chords & Tabs

 

Turn Up The Radio Chords & Tabs

Autograph Chords & Tabs

Version: 1 Type: Tab 0 ratings
1 star 2 stars 3 stars 4 stars 5 stars
comments

Turn Up The Radio Tab

Tuning:standard
Tabbed by:a crazy teenage rock and roll fan
artist:autograph
song:turn up the radio
album:sign in please
year:1984

Finally, here it is, the best autograph song in the world and its actually very simple to play.

note:
some of the sounds in this song are made by keyboards so dont be fooled. these are the actual guitar parts.

Intro.
E|---------------------------------|
B|---------------------------------|
G|---------------------------------|
D|---------------------------------|
A|---------------5---------------5-|
E|-3-3-3-3-3-3-3---3-3-3-3-3-3-3---|
reapeat this throughout the song
[ Tab from: http://www.guitartabs.cc/tabs/a/autograph/turn_up_the_radio_tab.html ]
verse
E|-----------------------------------------------------------------|
B|-----------------------------------------------------------------|
G|-----------------------------------------------------------------|
D|-----------------------------------------------------3h5---------|
A|-5-5-5-5-5-5-5-5-5-5-5-5-5-5-5-5-5-5-5-5-5-5-5-5-5-5-----3h5-0h2-|
E|-3-3-3-3-3-3-3-3-3-3-3-3-3-3-3-3-3-3-3-3-3-3-3-3-3-3-------------|
repeat this throughout the verse

chorus
E|-------------------------------|
B|-------------------------------|
G|-------------------------10--8-|
D|-5--6----6--6----4--2----10--8-|
A|-5--6----6--6----4--2----8---6-|
E|-3--4----4--4----2--0----------|

this is a standard song so just repeat the verse and chorus three times.

LONG LIVE ROCK AND ROLL!!!!!!!
Comments