Autograph - Turn Up The Radio Chords & Tabs

 

Turn Up The Radio Chords & Tabs

Autograph Chords & Tabs

Version: 1 Type: Bass Tab 0 ratings
1 star 2 stars 3 stars 4 stars 5 stars
comments

Turn Up The Radio Bass Tab

   
Tabbed by Roth135
N_Slayer20@Yahoo.com
http://www.van-halen.cjb.net

Intro
G|---------------------------------|
D|---------------4---------------4-| Use in verses as well
A|---------------------------------| 
E|-2-2-2-2-2-2-2---2-2-2-2-2-2-2--2|

At 0:48
G|---------------|
D|-0-4---2-------|
A|-----4---2-4---|
E|-------------0-|
[ Tab from: http://www.guitartabs.cc/tabs/a/autograph/turn_up_the_radio_btab.html ]
Chorus
G|-------------------|
D|----------------2--| Repeat Until After Chorus
A|-------------------|
E|-0-0-0-0-0-0-0-0-0-|

Guitar Solo
G|-------------------------------------|
D|-------------------------------------| Repeat throughout
A|-------------------------------------| guitar solo
E|-4-4-4-4-4-4-2-2-2-2-2-2-4-4-4-4-4-4-|
Comments