Autograph - In The Night Chords & Tabs

 

In The Night Chords & Tabs

Autograph Chords & Tabs

Version: 1 Type: Bass Tab 0 ratings
1 star 2 stars 3 stars 4 stars 5 stars
comments

In The Night Bass Tab

tuning:standard
tabbed by:a crazy teenage rock and roll fan
album:sign in please
artist:autograph
year:1984

intro
G|-----------------------------------------------------------------|
D|-----------------------------------------------------------------|
A|---------------------------------6-6-6-6-6-6-6-6-6-6-6-6-6-6-6-6-|
E|-4-4-4-4-4-4-4-4-4-4-4-4-4-4-4-4---------------------------------|
play this twice
[ Tab from: http://www.guitartabs.cc/tabs/a/autograph/in_the_night_btab.html ]
verse
G|----------------------2--2--2-2--2--2--2-2-|
D|-3--3--3-3--3--3--3-3----------------------|
A|-------------------------------------------|
E|-------------------------------------------|

G|---------------------------------------|
D|---------------------------------------|
A|-0--0--0-0--0--0--0-0--0--0--0-0-------|
E|---------------------------------5-3-0-|
play this twice

then play this
G|--------------------------------------|
D|--------------------------------------|
A|-0----0----0----0----2----2----2----2-|
E|--------------------------------------|

the chorus is just the same as thi introduction

bridge
G|-----------------------------|
D|-----------------------------|
A|-----------------------------|
E|-5-------1--------5--------1-|

that should do it

ROCK A ROLL!!!!!!!
Comments