Authority Zero - Revolution Chords & Tabs

 

Revolution Chords & Tabs

Authority Zero Chords & Tabs

Version: 2 Type: Bass Tab

Revolution Bass Tab

Standard tuning
/ - Slide up
 - Slide down
p - Pull off
r - Ring out


  Intro/Verse
|----14----17----15p14-------14----17----15p14----|
|-15----15----15-------15-15----15----15----------|
|-------------------------------------------------|
|-------------------------------------------------|

|----11----14----12p11--------11----14-----12p11r-/14----|
|-12----12----12-------12-12-----12----12r--------/15----|
|--------------------------------------------------------|
|--------------------------------------------------------|

|----14----17----15p14-------14----17----15p14----|
|-15----15----15-------15-15----15----15----------|
|-------------------------------------------------|
|-------------------------------------------------|

  Transition
|-------------------|
|-------------------|
|-------------------|
|-1111111111111111-|

  Transition II
|----11----14----12p11--------11----14-----12p11----|
|-12----12----12-------12-12-----12----12-----------|
|---------------------------------------------------|
|---------------------------------------------------|
[ Tab from: http://www.guitartabs.cc/tabs/a/authority_zero/revolution_btab_ver_2.html ]
  Breakdown
|-------------------------------------|
|--------------------------7-5-4-5----|
|------------------555-555------------|
|-1111111111111111--------------------|

  Chorus
|------------------------------------|
|--------5m-4m-3m--------------------|
|------------------------333-3333----|
|-11-111----------11-111-------------|

|------------------------------------|
|--------5m-4m-3m--------------------|
|------------------------5-----------|
|-11-111----------11-111/--3-3333----|

|------------------------------------|
|--------5m-4m-3m--------------------|
|------------------------333-3333----|
|-11-111----------11-111-------------|

|----------------------------|--------|
|--------5m-4m-3m----------|----------|
|------------------------333-|-/15----|
|-11-111----------11-111----|---------|

  Outro
|------------------|--------|
|------------------|--------|
|--------3---------|-5-5b---|
|-11-111---33-333-|---------|


THIS IS EXACT!!! (a bit confusing though)

Intro w/Transition
Verse w/Transition II
Breakdown  x2
Verse w/Transition II
Chorus w/Slide
Verse
Intro w/Transition II  x2
Chorus
Verse w/Transition II  x3
Chorus
Outro  2x (with ending after 2nd time)