Authority Zero - Revolution Chords & Tabs

 

Revolution Chords & Tabs

Authority Zero Chords & Tabs

Version: 1 Type: Bass Tab 0 ratings
1 star 2 stars 3 stars 4 stars 5 stars
comments

Revolution Bass Tab

Ok this is my first tab, but this song was really horribly tabbed so I figured it out.  
hopefully I get this right.

Intro
G|----14----17----15-------15----17----15----|
D|-15----15----15----15-15----15----15----15-|
A|-------------------------------------------|
E|-------------------------------------------|

G|----11----14----12-------12----14----12----|
D|-12----12----12----12-12----12----12----12-|
A|-------------------------------------------|
E|-------------------------------------------| x2 Play Intro to here then go back and play it again

Verse
G|------------------------------------------------------------------|
D|------------------------------------------------------------------|
A|------------------5555555555------------------5555555p5555--------|
E|-1111111111111111------------1111111111111111--------------111111-|

G|----------------------|
D|----------------------|
A|-555555------5555-765-|
E|--------1111----------|  You can't hear this movement at the end but its there

G|----------------------------|
D|---------543----------------|
A|-5555555------------3333----|
E|-------------111111---------| x4
[ Tab from: http://www.guitartabs.cc/tabs/a/authority_zero/revolution_btab.html ]
Bass Solo
G|----14----17----15-------15----17----15----|
D|-15----15----15----15-15----15----15----15-|
A|-------------------------------------------|
E|-------------------------------------------|

G|----11----14----12-------12----14----12----|
D|-12----12----12----12-12----12----12----12-|
A|-------------------------------------------|
E|-------------------------------------------| x2 Solo is same as intro

Verse
G|-------------------------------------------------------------------|
D|-------------------------------------------------------------------|
A|------------------5555555555------------------5555555p5555---------|
E|-1111111111111111------------1111111111111111--------------111111--|
P.M.-----------------------------------------------------------------|

G|----------------------|
D|----------------------|
A|-555555------5555-765-|
E|--------1111----------| x1

Chorus                             Outro
G|----------------------------    G|-------------|
D|---------543----------------    D|-------------|
A|-5555555------------3333----    A|-55-33-55-33-|
E|-------------111111--------- x4 E|-------------| x1

Order
Intro x2
Verse x1
Chorus x4
Verse x1
Chorus x4
Solo x2
Verse x1
Chorus x4
Outro x1

That's Email me if you have any Questions!
Comments