Australian Crawl - Things Dont Seem Chords & Tabs

 

Things Dont Seem Chords & Tabs

Australian Crawl Chords & Tabs

Version: 2 Type: Bass Tab 0 ratings
1 star 2 stars 3 stars 4 stars 5 stars
comments

Things Dont Seem Bass Tab

AUSTRALIAN CRAWL - "Things Don't Seem" - Bass Tab

Common Time(4/4)
Standard Tuning(EADG)

INTRO/CHORUS/SOLO:
|------------------|-----------------|-----------------|
|*-----------------|-----------------|-----------------|
|*-2-2-2-2-2-2-2-2-|-----------------|-5-5-5-5-5-5-5-5-|
|------------------|-3-3-3-3-3-3-3-3-|-----------------|
   1 & 2 & 3 & 4 &   1 & 2 & 3 & 4 &   1 & 2 & 3 & 4 &

|------------------|
|-----------------*|
|-----------------*|
|-5-5-5-5-6-6-6-6--|
  1 & 2 & 3 & 4 &

VERSE:
|------------|-----------|-----------|--------------|
|*-----------|-----------|-----------|-------------*|
|*-5-r-5-5-r-|-----------|-----------|-----------3-*|
|------------|-3-r-3-3-r-|-1-r-1-1-r-|-1-r-1-1-3----|
   1 2 & 3 4   1 2 & 3 4   1 2 & 3 4   1 2 & 3 & 4

PRE-CHORUS:
|-----------|-----------|-----------|-----------------|
|-----------|-----------|-----------|-r-3-3-3-3-2-----|
|-5-r-5-5-r-|-----------|-----------|-------------5-3-|
|-----------|-3-r-3-3-r-|-1-r-1-1-r-|-----------------|
  1 2 & 3 4   1 2 & 3 4   1 2 & 3 4   1 & 2 & 3 & 4 &

MIDDLE BIT:
|-----------------|-----------------|-----------------|---------|
|-----------------|-----------------|-----------------|---------|
|-2-2-2-2-2-2-2-2-|-----------------|-5-5-5-5-5-5-5-5-|---------|
|-----------------|-3-3-3-3-3-3-3-3-|-----------------|-2-------|
  1 & 2 & 3 & 4 &   1 & 2 & 3 & 4 &   1 & 2 & 3 & 4 &   1 2 3 4

|---------|
|---------|
|---------|
|---------|
  1 2 3 4

|--4---------|-----------|-----------|------------|
|*-----5---3-|-----------|-5---2-----|-----------*|
|*-----------|---2-2-r---|---------5-|-----------*| (x3)
|------------|-----------|-----------|---3-3-r----|
   1 2 & 3 4   1 2 & 3 4   1 2 & 3 4   1 2 & 3 4

|-4---------|-----------|-----------------|---------------|
|-----5---3-|-----------|-5-5-5-5-5-5-5-5-|-5-5-5-5-5-5-4-|
|-----------|---2-2-r---|-----------------|---------------|
|-----------|-----------|-----------------|---------------|
  1 2 & 3 4   1 2 & 3 4   1 & 2 & 3 & 4 &   1 & 2 & 3 & 4 
[ Tab from: http://www.guitartabs.cc/tabs/a/australian_crawl/things_dont_seem_btab_ver_2.html ]
PRE-SOLO:
|----------|---------|---------|----------|
|*-.-------|---------|-.-------|---------*|
|*-2-r-r-r-|-.-------|-5-r-r-r-|-.-------*| (x2)
|----------|-3-r-r-r-|---------|-5-r-r-r--|
   1 2 3 4   1 2 3 4   1 2 3 4   1 2 3 4

END:
|-----------------|-----------------|-----------------|
|-----------------|-----------------|-----------------|
|-2-2-2-2-2-2-4/5-|-----------------|-5-5-5-5-5-5-5-5-|
|-----------------|-3-3-3-3-3-3-3-3-|-----------------|
  1 & 2 & 3 & 4 &   1 & 2 & 3 & 4 &   1 & 2 & 3 & 4 &

|---------3-3-4-3-|-----------------|-----------------|
|-----------------|-----------------|-----------------|
|-----------------|-2-2-2-2-2-2-2-2-|-----------------|
|-5-5-5-5---------|-----------------|-3-3-3-3-3-3-3-3-|
  1 & 2 & 3 & 4 &   1 & 2 & 3 & 4 &   1 & 2 & 3 & 4 &

|-----------------|-----------------|-4-4-4-4-4-4-4-4-|
|-----------------|-7-7-7-7-7-7-7-7-|-----------------|
|-5-5-5-5-5-5-5-5-|-----------------|-----------------|
|-----------------|-----------------|-----------------|
  1 & 2 & 3 & 4 &   1 & 2 & 3 & 4 &   1 & 2 & 3 & 4 &

|-----------------|-----------------|-----------------|
|-5-5-5-5-5-5-5-5-|-----------------|-----------------|
|-----------------|-5-5-5-5-5-5-5-5-|-----------------|
|-----------------|-----------------|-5-5-5-5-6-6-6-6-|
  1 & 2 & 3 & 4 &   1 & 2 & 3 & 4 &   1 & 2 & 3 & 4 &

|-----------------|-----------------|-----------------|
|-----------------|-----------------|-----------------|
|-2-2-2-2-2-2-2-2-|-----------------|-5-5-5-5-5-5-5-5-|
|-----------------|-3-3-3-3-3-3-3-3-|-----------------|
  1 & 2 & 3 & 4 &   1 & 2 & 3 & 4 &   1 & 2 & 3 & 4 &

|-----------------|---------|---------|---------|---------|
|-----------------|-.-------|---------|---------|---------|
|-----------------|-2-r-r-r-|-.-------|-5-r-r-r-|---------|
|-5-5-5-5-5-5-5-5-|---------|-3-r-r-r-|---------|-5-------|
  1 & 2 & 3 & 4 &   1 2 3 4   1 2 3 4   1 2 3 4   1 2 3 4

|---------|---------|---------|
|---------|---------|---------|
|-------r-|-2-------|---------|
|---------|---------|---------|
  1 2 3 4   1 2 3 4   1 2 3 4

By: Johari Taylor
E-mail: viking@powerup.com.au
Comments