Australian Crawl - The Boys Light Up Chords & Tabs

 

The Boys Light Up Chords & Tabs

Australian Crawl Chords & Tabs

Version: 1 Type: Bass Tab 0 ratings
1 star 2 stars 3 stars 4 stars 5 stars
comments

The Boys Light Up Bass Tab

AUSTRALIAN CRAWL - "The Boys Light Up" - Bass Tab

Common Time(4/4)
Standard Tuning(EADG)

INTRO/VERSE:
|------------|-----------|---------|----------|
|*-----------|-----------|---------|---------*|
|*-.-.-.-----|-.-.-.-----|-.-.-.---|-.-.-.-.-*|
|--7-7-7-7-5-|-3-3-3-3-4-|-5-5-5-5-|-7-7-7-7--|
   1 2 3 4 &   1 2 3 4 &   1 2 3 4   1 2 3 4 
[ Tab from: http://www.guitartabs.cc/tabs/a/australian_crawl/the_boys_light_up_btab.html ]
PRE-CHORUS:
|-----------|-----------|---------|-------------|
|---.---.---|---.---.---|---.---.-|-------------|
|-.-9-.-9-7-|-.-7-.-7---|-.-5-.-5-|-.-.-.-.-.---|
|-7---7-----|-5---5---2-|-3---3---|-2-2-2-2-2-2/|
  1 2 3 4 &   1 2 3 4 &   1 2 3 4   1 & 2 & 3 4 

CHORUS/END:
|------------|---------|---------|--------.--|
|*------.----|---.-.-.-|---.-.-.-|------.-9-*|
|*-.-.--9-.--|-.-2-5-2-|-.-4-7-4-|-.-.--9---*|
|--7-10---10-|-3-------|-5-------|-7-10------|
   1 2  3 4    1 2 3 4   1 2 3 4   1 2  3 4

By: Johari Taylor
E-mail: viking@powerup.com.au
Comments