Australian Crawl - Reckless Solo Chords & Tabs

 

Reckless Solo Chords & Tabs

Australian Crawl Chords & Tabs

Version: 1 Type: Tab 0 ratings
1 star 2 stars 3 stars 4 stars 5 stars
comments

Reckless Solo Tab

This is the solo from Reckless by Australian Crawl
I'm retarded and don't know how to indicate timing so you'll have to know the song to be able to understand my tabs
[ Tab from: http://www.guitartabs.cc/tabs/a/australian_crawl/reckless_solo_tab.html ]
5-2------|----5-7-5-0----------5-7-5-|-5-7-9-7----|-5-2------------|
-----3-2-|-8---------------5>7---------|------------7-|-------3-2-3-2-|
----------|---------------------------------|---------------|-----------------|
----------|---------------------------------|---------------|-----------------|
----------|---------------------------------|---------------|-----------------|
----------|---------------------------------|---------------|-----------------|

----5------5>7------5>8---8-7----------|-------5-7-5---7>9--9>7-7-------|
-8------8---------8----------------7-------|-6-7----------------------------7-8-|
----------------------------------------6-4-|----------------------------------------|
----------------------------------------------|---------------------------------------|
----------------------------------------------|---------------------------------------|
----------------------------------------------|---------------------------------------|
Comments