Aus-rotten - System Works For Them Chords & Tabs

 

System Works For Them Chords & Tabs

Aus-rotten Chords & Tabs

Version: 1 Type: Tab

System Works For Them Tab

   
Artist: Aus-Rotten
Song: The System Works for Them
Album: The System Works for Them
Tabbed by PersonMan92

Tuning: D Standard (Low to High: D,G,C,F,A,D)

Intro

|----------------------------------------------------------------|
|----------------------------------------------------------------|
|----------------------------------------------------------------|
|-7---7--7--7--7--7--7--7--7--7--7--7--7--7--5-------------------|
|-7---7--7--7--7--7--7--7--7--7--7--7--7--7--5-------------------|
|-5---5--5--5--5--5--5--5--5--5--5--5--5--5--3-------------------|
      .  .  .  .  .  .  .  .  .  .  .  .  .

Verse
|----------------------------------------------------------------|
|----------------------------------------------------------------|
|-------------------------------7---5----------------------------|
|-5--7---7--5--7---7--5--7---7--7---5----------------------------|
|-5--7---7--5--7---7--5--7---7--5---3----------------------------|
|-3--5---5--3--5---5--3--5---5-----------------------------------| x3
[ Tab from: http://www.guitartabs.cc/tabs/a/aus_rotten/system_works_for_them_tab.html ]
|----------------------------------------------------------------|
|----------------------------------------------------------------|
|----------------------------------------------------------------|
|-5--7---7--5--7---7--5--7---7--5---3----------------------------|
|-5--7---7--5--7---7--5--7---7--5---3----------------------------|
|-3--5---5--3--5---5--3--5---5--3---1----------------------------|


Chorus
|----------------------------------------------------------------|
|----------------------------------------------------------------|
|----------------------------------------------------------------|
|-7--7--7--7--7--7--7--7--7--7--7--7-----------------------------|
|-7--7--7--7--7--7--7--7--7--7--7--7-----------------------------|
|-5--5--5--5--5--5--5--5--5--5--5--5-----------------------------|
  .  .  .  .  .  .  .  .  .  .  .  .

Solo
|----------------------------------------------------------------|
|-8--10--10-8--10--10-8--10--10----------------------------------|
|--------------------------------7--5----------------------------|
|-5--7---7--5--7---7--5--7---7---7--5----------------------------|
|--------------------------------5--3----------------------------|
|----------------------------------------------------------------| x3

|----------------------------------------------------------------|
|-8--10--10-8--10--10-8--10--10----------------------------------|
|----------------------------------------------------------------|
|-5--7---7--5--7---7--5--7---7---5--3----------------------------|
|--------------------------------5--3----------------------------|
|--------------------------------3--1----------------------------|