Auryn - Td Chords & Tabs

 

Td Chords & Tabs

Auryn Chords & Tabs

Version: 1 Type: Tab 0 ratings
1 star 2 stars 3 stars 4 stars 5 stars
comments

Td Tab

"TD" -- Auryn
Tabbed by Kyle

Drop D Tuning


Intro

Guitar 1  (Clean)
|--------------|
|--------------|
|--8--4--6--8--|
|--6--2--4--6--|
|--6--2--4--6--|
|--6--2--4--6--|

========================================================================
Verse

Guitar 1
Play Intro

Guitar 2  (Clean)
|----------------------------------------------------------------------|
|----------------------------------------------------------------------|
|----------------------------------------------------------------------|
|--1-1-1-x-0-x-1-1--2-2-2-x-0-x-2-2--4-4-4-x-0-x-4-4--6-6-6-x-0-x-6-6--|
|----------------------------------------------------------------------|
|----------------------------------------------------------------------|

========================================================================
After Verse

Guitar 1  (Distortion)
|--------------|
|--------------|
|--------------|
|--6--2--4--6--|
|--6--2--4--6--|
|--6--2--4--6--|
[ Tab from: http://www.guitartabs.cc/tabs/a/auryn/td_tab.html ]
Guitar 2  (Distortion)
|------------------------------------------|
|------------------------------------------|
|--xx-3-3-3-x-4-3-x-2h3-3-4-4-4-x-6-6-6-8--|
|------------------------------------------|
|------------------------------------------|
|------------------------------------------|

==========================================================================
Bridge/Outro

Guitar 1  (Distortion)
|--------------|
|--------------|
|--------------|
|--1--2--4--6--|
|--1--2--4--6--|
|--1--2--4--6--|

Guitar 2  (Distortion)
                  With Talk Box/Heavy wah
||--------------||----------------------------------------------|
||--------------||----------------------------------------------|
||--------------||--0-1-1-1-1--1-2-2-2-2--2-4-4-4-4--4-6-6-6-6--|
||--1--2--4--6--||----------------------------------------------|
||--1--2--4--6--||----------------------------------------------|
||--1--2--4--6--||----------------------------------------------|

==========================================================================
#^(#)  .. Bend to note in ( )
#^(#)r .. Bend to note in ( ) and release to original note
h ....... Hammer on
p ....... Pull off
~ ....... Vibrato/hold note
( ) ..... Held only for a second or hardly heard due to
          feedback, other notes picked, etc.
/........ Slide up
\........ Slide down
Comments