Auryn - Replaceable Chords & Tabs

 

Replaceable Chords & Tabs

Auryn Chords & Tabs

Version: 1 Type: Tab 0 ratings
1 star 2 stars 3 stars 4 stars 5 stars
comments

Replaceable Tab

   
"Replaceable" -- Auryn
Tabbed by Tony Hill and Kyle Holcombe

Standard tuning

[ Tab from: http://www.guitartabs.cc/tabs/a/auryn/replaceable_tab.html ]
Verse & Chorus
   B  G  D  A
|-----3--2-----|
|--4--3--3--2--|
|--4--0--2--2--|
|--4--0--0--2--|
|--2--2-----0--|
|-----3--------|

Bridge
|-----------||-----------|
|-----------||-----------|
|--4--4--5--||--7--4--5--|
|--4--5--7--||--7--5--7--|
|--2--5--7--||--5--5--7--|
|-----3--5--||-----3--5--|
Comments