August Burns Red - Composure Chords & Tabs

 

August Burns Red Chords & Tabs

Version: 1 Type: Bass Tab 0 ratings
1 star 2 stars 3 stars 4 stars 5 stars
comments

Composure Bass Tab

Composure

Drop C Tuning

Intro:
|------------------------------------------------------------------------|
|------------------------------------------------------------------------|
|------------------------------------------------------------------------|
|-0-------------(0)--------------0--------------(0)-------10-------------|

|-------------------------------------------------------------------------|
|-------------------------------------------------------------------------|
|-------------------------------------------------------------------------|
|-8--------------(8)--------------8--------------(8)-------5--------------|

|-------------------------------------------------------------------------|
|-------------------------------------------------------------------------|
|-------------------------------------------------------------------------|
|-0--------------(0)--------------0--------------(0)-------10-------------|

|-------------------------------------------------------------------------|
|-------------------------------------------------------------------------|
|-------------------------------------------------------------------------|
|-8--------------(8)--------------8--------------10-------(10)------------|

(here's what Dustin plays on the CD):

"Shake it off, pick yourself up, they say..."
|-----------------7----|--------------------7-------|
|---7h8----------------|--7h8-----------------------|
|--------5--7----------|-------5----7---------------|
|-------------0-0---0--|---------------0-0----0-----| x2

|----------------------------------------------------|
|----------------------------------------------------|
|-7h8p0---------10------7h8p0---------10-------------|
|--------8-8-8------8-----------8-8-8------8---------| x2

|------------------7---|--------------------7-------|
|---7h8----------------|--7h8-----------------------|
|--------5--7----------|-------5----7---------------|
|-------------0-0---0--|---------------0-0----0-----| x2

|------------------------------------------------------|
|------------------------------------------------------|
|-7h8p0-----------10-----7h8p0----------10-------------|
|----------8-8-8------8-----------8-8-8-----8----------| x2

(here's what Dustin plays live):

"Shake it off, pick yourself up, they say..."
|-------------------------------------------------------------------------|
|-------------------------------------------------------------------------|
|---------------------------------------------------------------------=---|
|-00000000-00000000-00000000-00000000-88888888-88888888-88888888-88888888-|

*back to CD

Interlude:
|-----------------------------------------------------------------------|
|-----------------------------------------------------------------------|
|----------7h8p7---5-5-5-5------|---------7h8p7-------------------------|
|--0-0-0----------0-----------7-|-0-0-0----------0-8-8-8-8-7------------|

|-------------10-10-9-9-7-7-9-9-7-7--|-----------------------------------------------|
|------------------------------------|-7h8p7p0-8h10p8p0-10h12p10p0-12h14p12p0--------|
|-7h8p7------------------------------|-----------------------------------------------|
|----------0-------------------------|-----------------------------------------------|

|------------------------------------|
|------------------------------------|
|----------7h8p7----5-5-5-5----------|
|--0-0-0----------0------------7-----|


"Pull it Together..."
|-----------------------------------------------------------------------|
|-----------------------------------------------------------------------|
|-----------7h8p7-----5-5-5-5-------------7h8p7-------------------------|
|--0-0-0-----------0------------7--0-0-0----------0-8-8-8-8-7-----------|

|---------------10-10-9-9-7-7-9-9-7-7-----|---------------------------------------------|
|-----------------------------------------|-7h8p7p0-8h10p8p0-10h12p10p0-12h14p12p0------|
|-7h8p7-----------------------------------|---------------------------------------------|
|-----------0-----------------------------|---------------------------------------------|x3

"It's not the First Time..."
|--------------------------------------------------------------------------------|
|--------------------------------------------------------------------------------|
|--------------------------------------------------------------------------------|
|--0-0-0-0-0---0-0-0-0-0---0---0-0-|-0-0-0----0-0-0-0-0---0-0-0-0----------------|

|--------------------------------------------------------------|
|--------------------------------------------------------------|
|--------------------------------------------------------------|
|-0---0---0-0-0-0-0-----||-0---0---0-0-0-0-0--|-(0)------------|

"More and More your demeanor looks like Quicksand..."
|-------------------------------------------------------------------------------|
|-------------------------------------------------------------------------------|
|-------------------------------------------------------------------------------|
|--0-0-0-0-0---0-0-0-0-0---0---0-0-|-0-0-0----0-0-0-0-0---0-0-0-0---------------|


|---------------------------------------------------|
|---------------------------------------------------|
|---------------------------------------------------|
|-0---0---0-0-0-0-0-----||--0---0---0-0-0-0---------| x2

Interlude 2:
|-------------6h8p6------------|
|----------------------8-10----|
|------------------------------|
|-000-0-00---------------------|

|------------------------------------------------|
|------------------------------------8p7---------|
|------------------------------------------8-----|
|--8---8---8--8--8-5-|-(5)-5-5-------------------| x5

|--------------6h8p6------------|
|-----------------------8-10----|
|-------------------------------|
|-000-0-00----------------------|
[ Tab from: http://www.guitartabs.cc/tabs/a/august_burns_red/composure_btab.html ]
|---------------------------------------------------------------------------------|
|---------------------------------------------------------------------------------|
|---------------------------------------------------------------------------------|
|--8-8-8-8-8--5--(5)-5--5--5--5--5--5---5-|---5-5-5-5-5-5-5-5---------------------|

PAUSE

"It's Pulling You Under..."
|-------------------------------------------------------------------------|
|-------------------------------------------------------------------------|
|-------------------------------------------------------------------------|
|--0-0-0-0---0-0-0-0-0-0-0-0---|---0-0---0----0-0-0-0---0-0---------------|

|----------------------------------------------------------------------------|
|----------------------------------------------------------------------------|
|----------------------------------------------------------------------------|
|-0--0-0-0---0-0-0-0-0-0--0--0-----|---0-0---0------0-0-0-0---0-0------------|x2

"It Seems Like You're Giving Up On Everything..."
||-----------------------------|---------10-7--------------------|
||-----------------------------|-7-8-8--------8-7h8p7p0----------|
||------------------7-8-8p0----|---------------------------------|
||--0-0-0-0-0-0----------------|---------------------------------|


||----------------------------|---------10-7--------------------|
||----------------------------|-7-8-8--------8-7h8p7p0----------|
||-----------------7-8-8p0----|---------------------------------|
||--0-0-0-0-0-0---------------|---------------------------------|

||----------------------------|---------10-7--------------------|
||----------------------------|-7-8-8--------8-7h8p7p0----------|
||------------------7-8-8p0---|---------------------------------|
||--0-0-0-0-0-0---------------|---------------------------------|

|----------------------------|-----------7------------------|
|----------------------------|----7-8-8---------------------|
|-----------------7-8-8p0----|--------------8h10------------|
|-0-0-0-0-0-0----------------|---------------------8h10-----|

"It's Pulling You Under..."
|---------------------------------------------------|
|---------------------------------------------------|
|---------------------------------------------------|
|-0000000000000000000000000000000000-8~-10~-0~-0g---|

Interlude III
||------------------------------|-------------10--7----------------------|
||------------------------------|--7--8--8-----------8--7h8p7p0----------|
||-------------------7h8--------|----------------------------------------|
||--0-0-0-0-0-0-0--------0------|----------------------------------------|

|-----------------------------|-----------7-----------------|
|-----------------------------|--7--8--8--------------------|
|-------------------7h-8------|--------------8h10-----------|
|-0-0-0-0-0-0-0-----------0---|--------------------8h10-----| x2

"But don't turn your Back on..."

*Driving*
|-----------------------------------------------|
|-----------------------------------------------|
|-----------------------------------------------|
|-0-3-8---0-3-8-5---0-3-8---0-3-8-10------------|

"They Have Always Been There..."
|------------------------------------|
|------------------------------------|
|----------7h8p7---------------------|
|-0-0-0-----------0-0-0-0-0-0--------| x3

pause

SLIDE!
|--------|
|--------|
|--------|
|-12/0---|

"Brace Your Fall..."
|-----------------------------------------------|
|-----------------------------------------------|
|-----------------------------------------------|
|-0-0-0------0-0----|---0-0-0-0-0--0--0---------|

|------------------------------------------------------------------|
|------------------------------------------------------------------|
|------------------------------------------------------------------|
|-0-0-0------0-0-0-0-0-0-|-0-0-0------0-0-0------------------------|

|------------------------------------------------------------------|
|------------------------------------------------------------------|
|------------------------------------------------------------------|
|-0-0-0-0-0--0--0-|---0-0-0------0-0-0-0-0-0-----------------------|

|------------------------------------------------------------------|
|------------------------------------------------------------------|
|------------------------------------------------------------------|
|--0---0---0----------0-0--0---------------------------------------| x2

"Wave Goodbye to the Past..."
|----------------------------------|
|----------------------------------|
|----------------------------------|
|---000---333-----88---88--8-8-8---|

|---------------------------------------------------------------------------|
|---------------------------------------------------------------------------|
|---------------------------------------------------------------------------|
|-------0-0--0----------3-3--3--3--3--3---8-8--8----------8-8--8------------|

|------------------------------------------------------------------|
|------------------------------------------------------------------|
|------------------------------------------------------------------|
|----------0-0----0--0--3-----3---------3--------------------------|

|------------------------------------------------------------------|
|------------------------------------------------------------------|
|------------------------------------------------------------------|
|-----8-8--8----------8-8--8-8--8-8--------------------------------|

"It's Time to Gain Some Ground."
|---------------------------------|
|---------------------------------|
|---------------------------------|
|-000~---000~---00-00-0g-0g-0~---*|

a lot of fun to play, if you get the breakdowns. little confusing, just listen to it. 
100% i'm positive. i've watched him play it and i've memorized the guitar, drums, and bass 
to that song. have fun.


-enjoi
Comments