August Burns Red - Blinding Light Chords & Tabs

 

August Burns Red Chords & Tabs

Version: 1 Type: Tab 0 ratings
1 star 2 stars 3 stars 4 stars 5 stars
comments

Blinding Light Tab

   
----------------------------------------------------------------------------
		     The Blinding Light - August Burns Red
----------------------------------------------------------------------------

Tabbed by: Kyle Gilmore
Email: fornia_03@yahoo.com

Tuning: CGCFAD

e|------------------------------------------------------------|
B|------------------------------------------------------------|
G|----------------------6p0-3p0--------9p0-3p0------------6b--| (4x)
D|----------------------------------------------------8p0-----|
A|-00-00-00-00--8p0-4p0---------00-00----------00-00----------|
E|-00-00-00-00------------------00-00----------00-00----------|
   xx xx xx xx                  xx xx          xx xx
[ Tab from: http://www.guitartabs.cc/tabs/a/august_burns_red/blinding_light_tab.html ]
e|------------------------------------------------------------------------|
B|------------------------------------------------------------------------|
G|-6p0h9--6p0h9-6p0h9--6p0h9-7p0h10--7p0h10-7p0h10--7p0h10-9p0h12--9p0h12-|>
D|------------------------------------------------------------------------|>
A|------------------------------------------------------------------------|
E|------------------------------------------------------------------------|
                                 (1st Time)                (2nd Time)
CONT|-----------------|-------------------------------|------------------|
 INU|-----------------|-------------------------------|------------------|
< ED|-9p0h12--9p0h12--|-7p0h10--7p0h10-7p0h10--7p0h10-|-10p0h14--10p0h14-|>
<   |-----------------|-------------------------------|------------------|>
    |-----------------|-------------------------------|------------------|
    |-----------------|-------------------------------|------------------|
                                 
                                 
CONT|------------------|
 INU|------------------|
< ED|-10p0h14--10p0h14-|
<   |------------------|
    |------------------|
    |------------------|

e|-----------------------------------|
B|-----------------------------------|
G|-----------------------------------| (4x)
D|-----------------------------------|
A|-000-000-0-000-0-00-00-0-00-000-0--|
E|-000-000-0-000-0-00-00-0-00-000-0--|
   xxx xxx x xxx x xx xx x xx xxx x


  *(Guitar I breaks off to this while guitar II plays the above palm mute)*
e|------------------------------------------------------------------------|
B|------------------------------------------------------------------------|
G|-6p0h9--6p0h9-6p0h9--6p0h9-7p0h10--7p0h10-7p0h10--7p0h10-9p0h12--9p0h12-|>
D|------------------------------------------------------------------------|>
A|------------------------------------------------------------------------|
E|------------------------------------------------------------------------|
                                 
CONT|---------------------------------------------------|
 INU|---------------------------------------------------|
< ED|-9p0h12--9p0h12--10p0h14--10p0h14-10p0h14--10p0h14-|
<   |---------------------------------------------------|
    |---------------------------------------------------|
    |---------------------------------------------------|

e|---13----12-13-------13----12-13------|
B|-----15-------15-------15-------15----|
G|-14----14-------14-14----14-------14--|
D|--------------------------------------|
A|--------------------------------------|
E|--------------------------------------|



| /  slide up
| \  slide down
| h  hammer-on
| p  pull-off
| ~  vibrato
| +  harmonic
| x  Mute note
============================================================================
Comments