Auf Der Maur - Beast Of Honour Chords & Tabs

 

Beast Of Honour Chords & Tabs

Auf Der Maur Chords & Tabs

Version: 1 Type: Tab 0 ratings
1 star 2 stars 3 stars 4 stars 5 stars
comments

Beast Of Honour Tab

   
Band - Auf Der Maur
Song - Beast of Honour
Album - Auf Der Maur

Tuning - Standard

Intro/Verse

"I'm a taste test...."

e:-----------------------------:
b:-----------------------------:
g:-----------------------------:  Repeat as many times needed
d:-3-3-3/2-2-2-2/3-3/5/2-2-2-2-:
a:-3-3-3/2-2-2-2/3-3/5/2-2-2-2-:
E:-1-1-1/0-0-0-0/1-1/3/0-0-0-0-:

Pre-Chorus

"At this Feast of ours...."

e:---------------------:
b:---------------------:
g:---------------------:  Repeat 4 times
d:-7-7-x-7-7-7-7-7/8-8-: 
a:-7-7-x-7-7-7-7-7/8-8-:
E:-5-5-x-5-5-5-5-5/6-6-:

Chorus

"Fall into the arms....."
[ Tab from: http://www.guitartabs.cc/tabs/a/auf_der_maur/beast_of_honour_tab.html ]
e:--------------------------------:
b:--------------------------------:
g:-7------------------------------:   Repeat 4 times
d:-7-------8-------3-------2------:
a:-5--x6---8--x6---3--x6---2--x6--:
E:-5-------6-------1-------0------:

Bridge

"I'm on a Hook yeah....."

e:---------------------------------:
b:---------------------------------:
g:---------------------------------:   Repeat as many times needed
d:101010/9-9-9-9/1010/1212/9-9-9-9-:
a:101010/9-9-9-9/1010/1212/9-9-9-9-:
E:-8-8-8/7-7-7-7/8-8/10-10/7-7-7-7-:

Breakdown

e:---------------:
b:---------------:
g:-----7---------:    Repeat as many times
d:10-x-7-x-7-x-9-:
a:10-x-5-x-7-x-9-:
E:-8-x---x-5-x-7-:

Back to Chorus


Any Corrections post them to me......Doms_BeerCo@Hotmail.com
Comments