Auditory Nerve - Self Endulgement Queues Verse Chords & Tabs

 

Self Endulgement Queues Verse Chords & Tabs

Auditory Nerve Chords & Tabs

Version: 1 Type: Tab 0 ratings
1 star 2 stars 3 stars 4 stars 5 stars
comments

Self Endulgement Queues Verse Tab

                     Verse


E---------------------------------------------------------------------------------------------------------

B---------------------------------------------------------------------------------------------------------

G-------------------------------------------------------------------------------------------------------

D----9----------------------7--------------------------12--------------------------9--------------------

A----9----------------------7--------------------------12--------------------------9--------------------
[ Tab from: http://www.guitartabs.cc/tabs/a/auditory_nerve/self_endulgement_queues_verse_tab.html ]
D----9----------------------7--------------------------12--------------------------9--------------------



E---------------------------------------------------------------------------------------------------------

B---------------------------------------------------------------------------------------------------------

G-------------------------------------------------------------------------------------------------------

D----7----------------------5--------------------------4------------7----------------------------------

A----7----------------------5--------------------------5------------5---------------------------------

D----7----------------------5---------------------------------------------------------------------------


                 


Comments