Audioslave - Your Time Has Come Chords & Tabs

 

Your Time Has Come Chords & Tabs

Audioslave Chords & Tabs

Version: 4 Type: Tab 0 ratings
1 star 2 stars 3 stars 4 stars 5 stars
comments

Your Time Has Come Tab

Audioslave
Your Time Has Come
Solo


For the solo, Morello actually uses his left hand to pick the high 'e', while tapping
on the high notes with his right hand. 


e|-0-0-0-0-0-0-0-0-0-0-0-0-0-0-|  <--- left hand picks the string
b|-----------17-17---------17--|
g|------------------16-16------|  (x8)
d|-----14-14-------------------|
a|-----------------------------|
E|-----------------------------|


Next part:
Now, tap 'G' string with right hand, while tapping the 'b' and 'e' strings with the left hand with pick.


e|---------17-17--15--------|---------15-15--17----------|
b|---------------------17---|-------------------17-------|
g|--12-12~------------------|--14 14~--------------------|
d|--------------------------|----------------------------|
a|--------------------------|----------------------------|
E|--------------------------|----------------------------|
[ Tab from: http://www.guitartabs.cc/tabs/a/audioslave/your_time_has_come_tab_ver_4.html ]
e|---------15-15--19---15---|---------17-17--15----------|
b|--------------------------|--------------------17------|
g|--16-16~------------------|--12-12~--------------------|
d|--------------------------|----------------------------|
a|--------------------------|----------------------------|
E|--------------------------|----------------------------|


e|---------17-17--19--------|---------17-17--15----------|
b|---------------------17---|--------------------17------|
g|--14-14~------------------|--16-16~--------------------|
d|--------------------------|----------------------------|
a|--------------------------|----------------------------|
E|--------------------------|----------------------------|


Last riff: 

e|-------------------------------------------------------|
b|---15h17p15--------------------------------------------|
g|------------16--14h16p14--12--12h14p12-----------------|
d|-----------------------------------------14-14~--------|
a|-------------------------------------------------------|
E|-------------------------------------------------------|
Comments