Audioslave - Your Time Has Come Chords & Tabs

 

Your Time Has Come Chords & Tabs

Audioslave Chords & Tabs

Version: 2 Type: Tab 0 ratings
1 star 2 stars 3 stars 4 stars 5 stars
comments

Your Time Has Come Tab

WRONG TABS ALL OVER THE PLACE!!! AHH i decided to fix this thing up....so send me the
corrections, if any, to creepingdeath1125@yahoo.com


Intro
e|------------------------------------------------------------------|
b|-------------------------------------------------8----------------|
g|-9-7-9-7-9-7-------------------------------7-7-9---9-7-7----------|
d|-------------9-7-9-7-9-7-9-7------5-7--7-9----------------9-7-7-5\|
a|-----------------------------10-7---------------------------------|
E|------------------------------------------------------------------|

Main Riff/Verses
e|---------------------------------|
b|---------------------------------|
g|---------------------------------|
d|---------------------------------|
a|--7-5------------/7-5------------|
E|------7-5-3-0---------7-5-3-0-5--|

Main riff x3
Verse 1   x8

Chorus 1 
e|---------------|-----------|
b|---------------|-----------|
g|-----7---------|-----7-----|
d|-5---7---7---2-|-5---7---7-|
a|-5---5---7---2-|-5---5---7-|
E|-3-------5---0-|-3-------5-|

Main riff x2
Verse 2   x8
[ Tab from: http://www.guitartabs.cc/tabs/a/audioslave/your_time_has_come_tab_ver_2.html ]
Chorus 2    [x3]       [..4th time]
e|---------------|   |-----------|
b|---------------|   |-----------|
g|-----7---------|   |-----7-----|
d|-5---7---7---2-|   |-5---7---7-|
a|-5---5---7---2-|   |-5---5---7-|
E|-3-------5---0-|   |-3-------5-|

Main riff x2


Solo- Basic Tom Morello stuff: hammer ons, delays, and toggle switch stuff. its usually
in Penatonic soloing, so improvise on that...

Main Riff x4

Riff 2 (low part) x3
e|-------------------|  |------------------|
b|-------------------|  |------------------|
g|-------------------|  |-----7-7--7-7-7-7-|
d|-------------------|  |-----7-7--7-7-7-7-|
a|-----5-------------|  |-----5-5--5-5-5-5-|
E|-0-3----5---3-3--0-|  |-0-3--------------|

Chorus 2- 3rd and 4th time through chorus, play these harmonics

e|----*-------------|  
b|----7-*-----------|
g|------7-------*---|
d|--------------7-*-|
a|----------------7-|
E|------------------| X2

Ending
e|---------------------------------|
b|---------------------------------|
g|---------------------------------|
d|---------------------------------|
a|--7-5------------/7-5------------| 
E|------7-5-3-0---------7-5-3-0-5--|X3 
 
e|------------------------------------|
b|------------------------------------|
g|------------------------------------|
d|---------------------------------2~~|
a|--7-5------------/7-5------------2~~|
E|------7-5-3-0---------7-5-3-0-5--0~~|

NOTE: This is just the tabs to this song. Improv. with this song as u learn it, because
thats what guitarists do: they IMPROVISE!  - Jo-Mama
Comments