Audioslave - Your Time Has Come Chords & Tabs

 

Your Time Has Come Chords & Tabs

Audioslave Chords & Tabs

Version: 1 Type: Tab 0 ratings
1 star 2 stars 3 stars 4 stars 5 stars
comments

Your Time Has Come Tab

   
Audioslave
Ryan.C

Just heard this the other day so I tabbed itand i got to say this is probaly the beast
thing ive heard them do yet. Listen for the timing. if theirs any corrections that has
to be made e-mail me if it is at chhang7@hotmail.com.  

Intro
e|------------------------------------------------------------------------| 
B|------------------------------------------------------------------------| 
G|-9-7-9-7-9-7-----------------------------------5-7-7-9-12-9-7---7-------| 
D|----------------9-7-9-7-9-7-9-7-7-5-5-7-9---------------------9---9-7-5-|  
A|------------------------------------------------------------------------| 
E|------------------------------------------------------------------------|


[ Tab from: http://www.guitartabs.cc/tabs/a/audioslave/your_time_has_come_tab.html ]
Main riff
e|-----------------------------------------------------| 
B|-----------------------------------------------------| 
G|-----------------------------------------------------|  
D|-----------------------------------------------------| 
A|-----------------------------------------------------|
E|-10/12--10--8--5--8--0---10/12--10--8--5--8--08/10--| 

Or

e|----------------------------------------------| 
B|----------------------------------------------| 
G|----------------------------------------------|  
D|----------------------------------------------| 
A|-5/7--5--3--0--3-0---5/7--5--3--0--3--0--3/5--|
E|----------------------------------------------| 



Chorus
e|-----------------------------|                   
B|-----------------------------| 
G|----------7------------------|  
D|----5-----7----7-----2-------| 
A|----5-----5----7-----2-------|
D|----3----------5-----0-------| 

Or

e|-------------------------------| 
B|-------------------------------| 
G|----------7-----------9--------|  
D|----5-----7----7------9--------| 
A|----5-----5----7------7--------|
D|----3----------5---------------|
Comments