Audioslave - Your Time Has Come Chords & Tabs

 

Your Time Has Come Chords & Tabs

Audioslave Chords & Tabs

Version: 2 Type: Bass Tab 0 ratings
1 star 2 stars 3 stars 4 stars 5 stars
comments

Your Time Has Come Bass Tab

   
Tabbed By : mike antoch
e-mail: Sodaman34@aol.com

Tuning: standard e,a,d,g

main riff/verses
G|--------------------------------------------------------------------------|
D|--------------------------------------------------------------------------|
A|7-5---------7-5-----------------------------------------------------------|
E|----7-5-3-0-----7-5-3-0/5-------------------------------------------------|
[ Tab from: http://www.guitartabs.cc/tabs/a/audioslave/your_time_has_come_btab_ver_2.html ]
chorus (the 2 and 3 on the a string are only bass while the guitar is still playing the 
on the e string, all other parts are the bass playing along with the guitar, playing the 
thing)
G|--------------------------------------------------------------------------|
D|--------------------------------------------------------------------------|
A|-----2-3-55555------------------------------------------------------------|
E|3333-----------55555/-000000----------------------------------------------|

also play the chorus part during the solo, which is insane i might add


softer part (let notes ring)
G|--------------------------------------------------------------------------|
D|--------------------------------------------------------------------------|
A|-2-5----------------------------------------------------------------------|
E|3---5-5-3-0---------------------------------------------------------------|


ive only heard this song like 4 times mabye and its really easy. thats the
whole thing. have fun. this is a very catchy riff; im gonna be humming it all day. this 
a good song, cant wait for the cd. peace out people
Comments