Audioslave - Yesterday To Tomorrow Chords & Tabs

 

Yesterday To Tomorrow Chords & Tabs

Audioslave Chords & Tabs

Version: 2 Type: Tab 0 ratings
1 star 2 stars 3 stars 4 stars 5 stars
comments

Yesterday To Tomorrow Tab

   
-------------------------------------------------------------------------------
	             Yesterday to Tomorrow - Audioslave
-------------------------------------------------------------------------------
Tabbed by: Paul Briggs
Email: briggsey_p@hotmail.com

Tuning: EADGBe

it appears to me that the creators of this site hate me because i didnt do a full tab
so i guess ill tab the whole song

verse
e|-------0-------0------------------------0-----|
B|-----------------1-----------3--------1---1---|
G|-----2-------2-----2--------4-------2-------2-|
D|---2-------2---------2------------------------|
A|-0-------0----------------5-------3-----------|
E|------------------------3-------1-------------|

Chorus
e|-------------------------||-------------|
B|-------------------------||-------------|
G|---2-0-------0-------0---||---2-0-------|
D|-------2---2---2---0---0-||-------2-----|
A|-0-------3-------2-------||-0-------3-2-|
E|-------------------------||-------------|

Bride 1
e|----------------------------------------|
B|----------------------------------------|
G|-2--5-4-2--2--5-4-7--2--5-4-2--2--5-4-7-|
D|-2---------2---------2---------2--------|
A|-0---------0---------0---------0--------|
E|----------------------------------------|

Bridge 2
e|----1---------0-----------0------0-----0-------||---1-----0----------------|
B|------1---------0-------1------0----1-1--1-----||----1-----0---------------|
G|--------2---------1---2------4------0------0---||-----2-----1----7-9-5-5-7-|
D|-3----------2---------2------4------2--------2-||-3-----2--------7-9-5-5-7-|
A|-3----------2---------0------2------3----------||-3-----2--------5-7-3-3-5-|
E|-1----------0----------------------------------||-1-----0------------------|

Solo
e|---------------------------------------------------------------------------|
B|-8/10-10-10-10-10-10-10-10-10/12-12-12-12-12-12-12-12-12/13-13-13-13-13-13-|
G|---------------------------------------------------------------------------|
D|-5/7--7--7--7--7--7--7--7--7-/9--9--9--9--9--9--9--9--9-/10-10-10-10-10-10-|
A|---------------------------------------------------------------------------|
E|---------------------------------------------------------------------------|
[ Tab from: http://www.guitartabs.cc/tabs/a/audioslave/yesterday_to_tomorrow_tab_ver_2.html ]
e|--------------------------------------------|
B|-13/15-15-15-15-15-15-15-15/17-17-17-17-17\-|
G|--------------------------------------------|
D|-10/12-12-12-12-12-12-12-12/14-14-14-14-14\-|
A|--------------------------------------------|
E|--------------------------------------------|

Now how tom really plays it
e|-----------------------------------------------------------------|
B|--------------------------------------------------------13-12----|
G|---14-14-14-14-14-12----12-14---14-14-14-14-14-12----12-------14-|
D|---------------------14---------------------------14-------------|
A|-0-----------------------------0---------------------------------|
E|-----------------------------------------------------------------|

e|-----------------------------------------------------------------------|
B|--------------------------------15-13-12-15-13-12-15-13-12-13-12-13----|
G|---14-14-14-14-14-12----12-14---------------------------------------14-|
D|---------------------14------------------------------------------------|
A|-0-----------------------------0---------------------------------------|
E|-----------------------------------------------------------------------|

e|-------------------------------------------------------------|
B|-------------------------------------17----15----------------|
G|---14-14-14-14-14-12----12-14--14-16----16----17-16-17-14~~~-|
D|---------------------14--------------------------------------|
A|-0-----------------------------------------------------------|
E|-------------------------------------------------------------|

e|------------15-13-12----------------------------------12--------------------|
B|---------------------15-13-12----------------12-13-15----15-13-12-----------|
G|---14-14-12-------------------14-13-12-13-14----------------------14-12-14\-|
D|----------------------------------------------------------------------------|
A|-0--------------------------------------------------------------------------|
E|----------------------------------------------------------------------------|

| /  slide up
| \  slide down
| h  hammer-on
| p  pull-off
| ~  vibrato
| +  harmonic
| x  Mute note
===============================================================================
Comments