Audioslave - Worm Chords & Tabs

 

Worm Chords & Tabs

Audioslave Chords & Tabs

Version: 4 Type: Tab

Worm Tab

   
This is a great song by a great band.Saw them live and tom morello was
great


b-bend
/-slide
v-vibrato


intro/bridge

E|------------------------------------------||
B|------------------------------------------||
G|------------------------------------------||
D|-------------------------------12-11------||
A|-------12-14-14-12-14-14-12-14-------14---||
B|-10-12------------------------------------||


E|------------------------------------------||
B|------------------------------------------||
G|------------------------------------------||
D|-------------------------------12-11------||
A|-------12-14-14-12-14-14-12-14-------14---||
B|-10-12------------------------------------||


E|------------------------------------------||
B|------------------------------------------||
G|------------------------------------------||
D|-------------------------------12-11------||
A|-------12-14-14-12-14-14-12-14-------14---||
B|-10-12------------------------------------||

E|------------------------------------------||
B|------------------------------------------||
G|------------------------------------------||
D|-------------------------------12-11-12---||
A|-------12-14-14-12-14-14-12-14------------||
B|-10-12------------------------------------||


verse
[ Tab from: http://www.guitartabs.cc/tabs/a/audioslave/worm_tab_ver_4.html ]
E|------------------------------------------||
B|------------------------------------------||
G|------------------------------------------||
D|------------------------------------------||
A|------------------------------------------||
B|-12-10-12-15-12-17-15-12-10-5-3-0-5-3-0---|| let the last note ring


chorus

E|------------------------------------------||
B|------------------------------------------||
G|------------------------------------------||
D|------------------------------------------||     4x
A|-9--12------------------------------------||
B|-7--10---5-3-0-5-3-0----------------------||


solo


E|---------------------------------------------------------------------------------|
B|------------------------------------------------------------------------15-14-12-|
G|-15b-12/1--15b-12/1--15b-12/1--14v-12v----15b-12/1--15b-12/1--15b-12/1--15-14-12-|
D|-------------------------------------14v-----------------------------------------|
A|---------------------------------------------------------------------------------|
B|---------------------------------------------------------------------------------|


interlude


E|------------------------------------------||
B|------------------------------------------||
G|------------------------------------------||
D|---12-12--12-12--12-12--12-12-------------||
A|-14-----14-----14-----14------------------||
B|------------------------------------------||